  0
SECTION
  2
HEADER
  9
$ACADVER
  1
AC1015
  9
$ACADMAINTVER
 70
     6
  9
$DWGCODEPAGE
  3
ANSI_1252
  9
$INSBASE
 10
0.0
 20
0.0
 30
0.0
  9
$EXTMIN
 10
-247.0947210523
 20
-95.8098985071
 30
0.0
  9
$EXTMAX
 10
257.3914010426
 20
267.612546776
 30
0.0
  9
$LIMMIN
 10
0.0
 20
0.0
  9
$LIMMAX
 10
420.0
 20
297.0
  9
$ORTHOMODE
 70
     0
  9
$REGENMODE
 70
     1
  9
$FILLMODE
 70
     1
  9
$QTEXTMODE
 70
     0
  9
$MIRRTEXT
 70
     1
  9
$LTSCALE
 40
1.0
  9
$ATTMODE
 70
     1
  9
$TEXTSIZE
 40
3.175
  9
$TRACEWID
 40
1.0
  9
$TEXTSTYLE
  7
Standard
  9
$CLAYER
  8
0
  9
$CELTYPE
  6
ByLayer
  9
$CECOLOR
 62
   256
  9
$CELTSCALE
 40
1.0
  9
$DISPSILH
 70
     0
  9
$DIMSCALE
 40
1.0
  9
$DIMASZ
 40
3.302
  9
$DIMEXO
 40
0.0
  9
$DIMDLI
 40
3.75
  9
$DIMRND
 40
0.0
  9
$DIMDLE
 40
0.0
  9
$DIMEXE
 40
3.175
  9
$DIMTP
 40
0.0
  9
$DIMTM
 40
0.0
  9
$DIMTXT
 40
3.175
  9
$DIMCEN
 40
2.5
  9
$DIMTSZ
 40
0.0
  9
$DIMTOL
 70
     0
  9
$DIMLIM
 70
     0
  9
$DIMTIH
 70
     1
  9
$DIMTOH
 70
     1
  9
$DIMSE1
 70
     0
  9
$DIMSE2
 70
     0
  9
$DIMTAD
 70
     0
  9
$DIMZIN
 70
     1
  9
$DIMBLK
  1

  9
$DIMASO
 70
     1
  9
$DIMSHO
 70
     1
  9
$DIMPOST
  1

  9
$DIMAPOST
  1

  9
$DIMALT
 70
     0
  9
$DIMALTD
 70
     3
  9
$DIMALTF
 40
0.0393700787
  9
$DIMLFAC
 40
1.0
  9
$DIMTOFL
 70
     1
  9
$DIMTVP
 40
0.0
  9
$DIMTIX
 70
     0
  9
$DIMSOXD
 70
     0
  9
$DIMSAH
 70
     0
  9
$DIMBLK1
  1

  9
$DIMBLK2
  1

  9
$DIMSTYLE
  2
ISO-25
  9
$DIMCLRD
 70
     0
  9
$DIMCLRE
 70
     0
  9
$DIMCLRT
 70
     0
  9
$DIMTFAC
 40
1.0
  9
$DIMGAP
 40
1.524
  9
$DIMJUST
 70
     0
  9
$DIMSD1
 70
     0
  9
$DIMSD2
 70
     0
  9
$DIMTOLJ
 70
     0
  9
$DIMTZIN
 70
     1
  9
$DIMALTZ
 70
     0
  9
$DIMALTTZ
 70
     0
  9
$DIMUPT
 70
     0
  9
$DIMDEC
 70
     2
  9
$DIMTDEC
 70
     2
  9
$DIMALTU
 70
     2
  9
$DIMALTTD
 70
     3
  9
$DIMTXSTY
  7
Standard
  9
$DIMAUNIT
 70
     0
  9
$DIMADEC
 70
     2
  9
$DIMALTRND
 40
0.0
  9
$DIMAZIN
 70
     0
  9
$DIMDSEP
 70
    44
  9
$DIMATFIT
 70
     3
  9
$DIMFRAC
 70
     0
  9
$DIMLDRBLK
  1

  9
$DIMLUNIT
 70
     2
  9
$DIMLWD
 70
    -2
  9
$DIMLWE
 70
    -2
  9
$DIMTMOVE
 70
     0
  9
$LUNITS
 70
     2
  9
$LUPREC
 70
     2
  9
$SKETCHINC
 40
1.0
  9
$FILLETRAD
 40
0.0
  9
$AUNITS
 70
     0
  9
$AUPREC
 70
     2
  9
$MENU
  1
.
  9
$ELEVATION
 40
0.0
  9
$PELEVATION
 40
0.0
  9
$THICKNESS
 40
0.0
  9
$LIMCHECK
 70
     0
  9
$CHAMFERA
 40
0.0
  9
$CHAMFERB
 40
0.0
  9
$CHAMFERC
 40
0.0
  9
$CHAMFERD
 40
0.0
  9
$SKPOLY
 70
     0
  9
$TDCREATE
 40
2460355.64960294
  9
$TDUCREATE
 40
2460355.420436273
  9
$TDUPDATE
 40
2460355.650101817
  9
$TDUUPDATE
 40
2460355.42093515
  9
$TDINDWG
 40
0.0000000116
  9
$TDUSRTIMER
 40
0.0000000116
  9
$USRTIMER
 70
     1
  9
$ANGBASE
 50
0.0
  9
$ANGDIR
 70
     0
  9
$PDMODE
 70
     0
  9
$PDSIZE
 40
-1.0
  9
$PLINEWID
 40
0.0
  9
$SPLFRAME
 70
     0
  9
$SPLINETYPE
 70
     6
  9
$SPLINESEGS
 70
     8
  9
$HANDSEED
  5
41D
  9
$SURFTAB1
 70
     6
  9
$SURFTAB2
 70
     6
  9
$SURFTYPE
 70
     6
  9
$SURFU
 70
     6
  9
$SURFV
 70
     6
  9
$UCSBASE
  2

  9
$UCSNAME
  2

  9
$UCSORG
 10
0.0
 20
0.0
 30
0.0
  9
$UCSXDIR
 10
1.0
 20
0.0
 30
0.0
  9
$UCSYDIR
 10
0.0
 20
1.0
 30
0.0
  9
$UCSORTHOREF
  2

  9
$UCSORTHOVIEW
 70
     0
  9
$UCSORGTOP
 10
0.0
 20
0.0
 30
0.0
  9
$UCSORGBOTTOM
 10
0.0
 20
0.0
 30
0.0
  9
$UCSORGLEFT
 10
0.0
 20
0.0
 30
0.0
  9
$UCSORGRIGHT
 10
0.0
 20
0.0
 30
0.0
  9
$UCSORGFRONT
 10
0.0
 20
0.0
 30
0.0
  9
$UCSORGBACK
 10
0.0
 20
0.0
 30
0.0
  9
$PUCSBASE
  2

  9
$PUCSNAME
  2

  9
$PUCSORG
 10
0.0
 20
0.0
 30
0.0
  9
$PUCSXDIR
 10
1.0
 20
0.0
 30
0.0
  9
$PUCSYDIR
 10
0.0
 20
1.0
 30
0.0
  9
$PUCSORTHOREF
  2

  9
$PUCSORTHOVIEW
 70
     0
  9
$PUCSORGTOP
 10
0.0
 20
0.0
 30
0.0
  9
$PUCSORGBOTTOM
 10
0.0
 20
0.0
 30
0.0
  9
$PUCSORGLEFT
 10
0.0
 20
0.0
 30
0.0
  9
$PUCSORGRIGHT
 10
0.0
 20
0.0
 30
0.0
  9
$PUCSORGFRONT
 10
0.0
 20
0.0
 30
0.0
  9
$PUCSORGBACK
 10
0.0
 20
0.0
 30
0.0
  9
$USERI1
 70
     0
  9
$USERI2
 70
     0
  9
$USERI3
 70
     0
  9
$USERI4
 70
     0
  9
$USERI5
 70
     0
  9
$USERR1
 40
0.0
  9
$USERR2
 40
0.0
  9
$USERR3
 40
0.0
  9
$USERR4
 40
0.0
  9
$USERR5
 40
0.0
  9
$WORLDVIEW
 70
     1
  9
$SHADEDGE
 70
     3
  9
$SHADEDIF
 70
    70
  9
$TILEMODE
 70
     1
  9
$MAXACTVP
 70
    64
  9
$PINSBASE
 10
0.0
 20
0.0
 30
0.0
  9
$PLIMCHECK
 70
     0
  9
$PEXTMIN
 10
1.0000000000E+20
 20
1.0000000000E+20
 30
1.0000000000E+20
  9
$PEXTMAX
 10
-1.0000000000E+20
 20
-1.0000000000E+20
 30
-1.0000000000E+20
  9
$PLIMMIN
 10
0.0
 20
0.0
  9
$PLIMMAX
 10
420.0
 20
297.0
  9
$UNITMODE
 70
     0
  9
$VISRETAIN
 70
     1
  9
$PLINEGEN
 70
     0
  9
$PSLTSCALE
 70
     1
  9
$TREEDEPTH
 70
  3020
  9
$CMLSTYLE
  2
Standard
  9
$CMLJUST
 70
     0
  9
$CMLSCALE
 40
20.0
  9
$PROXYGRAPHICS
 70
     1
  9
$MEASUREMENT
 70
     1
  9
$CELWEIGHT
370
    -1
  9
$ENDCAPS
280
     0
  9
$JOINSTYLE
280
     0
  9
$LWDISPLAY
290
     1
  9
$INSUNITS
 70
     4
  9
$HYPERLINKBASE
  1

  9
$STYLESHEET
  1

  9
$XEDIT
290
     1
  9
$CEPSNTYPE
380
     0
  9
$PSTYLEMODE
290
     1
  9
$FINGERPRINTGUID
  2
{af3d043c-29a5-41e0-8bd5-8d7b357bd971}
  9
$VERSIONGUID
  2
{FAEB1C32-E019-11D5-929B-00C0DF256EC4}
  9
$EXTNAMES
290
     1
  9
$PSVPSCALE
 40
0.0
  9
$OLESTARTUP
290
     0
  0
ENDSEC
  0
SECTION
  2
CLASSES
  0
CLASS
  1
ACDBDICTIONARYWDFLT
  2
AcDbDictionaryWithDefault
  3
ObjectDBX Classes
 90
        0
280
     0
281
     0
  0
CLASS
  1
VISUALSTYLE
  2
AcDbVisualStyle
  3
ObjectDBX Classes
 90
     4095
280
     0
281
     0
  0
CLASS
  1
MATERIAL
  2
AcDbMaterial
  3
ObjectDBX Classes
 90
     1153
280
     0
281
     0
  0
CLASS
  1
SCALE
  2
AcDbScale
  3
ObjectDBX Classes
 90
     1153
280
     0
281
     0
  0
CLASS
  1
TABLESTYLE
  2
AcDbTableStyle
  3
ObjectDBX Classes
 90
     4095
280
     0
281
     0
  0
CLASS
  1
MLEADERSTYLE
  2
AcDbMLeaderStyle
  3
ACDB_MLEADERSTYLE_CLASS
 90
     4095
280
     0
281
     0
  0
CLASS
  1
SUN
  2
AcDbSun
  3
SCENEOE
 90
     1153
280
     0
281
     0
  0
CLASS
  1
ACDBPLACEHOLDER
  2
AcDbPlaceHolder
  3
ObjectDBX Classes
 90
        0
280
     0
281
     0
  0
CLASS
  1
LAYOUT
  2
AcDbLayout
  3
ObjectDBX Classes
 90
        0
280
     0
281
     0
  0
ENDSEC
  0
SECTION
  2
TABLES
  0
TABLE
  2
VPORT
  5
8
330
0
100
AcDbSymbolTable
 70
     1
  0
VPORT
  5
29
330
8
100
AcDbSymbolTableRecord
100
AcDbViewportTableRecord
  2
*Active
 70
     0
 10
0.0
 20
0.0
 11
1.0
 21
1.0
 12
5.1483399952
 22
85.9013241345
 13
0.0
 23
0.0
 14
10.0
 24
10.0
 15
10.0
 25
10.0
 16
0.0
 26
0.0
 36
1.0
 17
0.0
 27
0.0
 37
0.0
 40
370.6908941888
 41
1.3881534524
 42
50.0
 43
0.0
 44
0.0
 50
0.0
 51
0.0
 71
     0
 72
   100
 73
     1
 74
     3
 75
     0
 76
     0
 77
     0
 78
     0
281
     0
 65
     1
110
0.0
120
0.0
130
0.0
111
1.0
121
0.0
131
0.0
112
0.0
122
1.0
132
0.0
 79
     0
146
0.0
  0
ENDTAB
  0
TABLE
  2
LTYPE
  5
5
330
0
100
AcDbSymbolTable
 70
     6
  0
LTYPE
  5
14
330
5
100
AcDbSymbolTableRecord
100
AcDbLinetypeTableRecord
  2
ByBlock
 70
     0
  3

 72
    65
 73
     0
 40
0.0
  0
LTYPE
  5
15
330
5
100
AcDbSymbolTableRecord
100
AcDbLinetypeTableRecord
  2
ByLayer
 70
     0
  3

 72
    65
 73
     0
 40
0.0
  0
LTYPE
  5
16
330
5
100
AcDbSymbolTableRecord
100
AcDbLinetypeTableRecord
  2
Continuous
 70
     0
  3
Solid line
 72
    65
 73
     0
 40
0.0
  0
LTYPE
  5
5E
330
5
100
AcDbSymbolTableRecord
100
AcDbLinetypeTableRecord
  2
HIDDEN
 70
     0
  3
Hidden __ __ __ __ __ __ __ __ __ __ __ __ __ __
 72
    65
 73
     2
 40
1.905
 49
1.27
 74
     0
 49
-0.635
 74
     0
  0
LTYPE
  5
5F
330
5
100
AcDbSymbolTableRecord
100
AcDbLinetypeTableRecord
  2
PHANTOM
 70
     0
  3
Phantom ______  __  __  ______  __  __  ______
 72
    65
 73
     6
 40
12.7
 49
6.35
 74
     0
 49
-1.27
 74
     0
 49
1.27
 74
     0
 49
-1.27
 74
     0
 49
1.27
 74
     0
 49
-1.27
 74
     0
  0
LTYPE
  5
60
330
5
100
AcDbSymbolTableRecord
100
AcDbLinetypeTableRecord
  2
CENTER
 70
     0
  3
Center ____ _ ____ _ ____ _ ____ _ ____ _ ____
 72
    65
 73
     4
 40
10.16
 49
6.35
 74
     0
 49
-1.27
 74
     0
 49
1.27
 74
     0
 49
-1.27
 74
     0
  0
LTYPE
  5
61
330
5
100
AcDbSymbolTableRecord
100
AcDbLinetypeTableRecord
  2
CENTERX2
 70
     0
  3
Center (2x) ________  __  ________  __  _____
 72
    65
 73
     4
 40
20.32
 49
12.7
 74
     0
 49
-2.54
 74
     0
 49
2.54
 74
     0
 49
-2.54
 74
     0
  0
LTYPE
  5
62
330
5
100
AcDbSymbolTableRecord
100
AcDbLinetypeTableRecord
  2
DOT2
 70
     0
  3
Dot (.5x) ........................................
 72
    65
 73
     2
 40
0.635
 49
0.0
 74
     0
 49
-0.635
 74
     0
  0
ENDTAB
  0
TABLE
  2
LAYER
  5
2
330
0
100
AcDbSymbolTable
 70
     1
  0
LAYER
  5
10
330
2
100
AcDbSymbolTableRecord
100
AcDbLayerTableRecord
  2
0
 70
     0
 62
     7
  6
Continuous
370
    -3
390
F
  0
ENDTAB
  0
TABLE
  2
STYLE
  5
3
330
0
100
AcDbSymbolTable
 70
     1
  0
STYLE
  5
11
330
3
100
AcDbSymbolTableRecord
100
AcDbTextStyleTableRecord
  2
Standard
 70
     0
 40
0.0
 41
1.0
 50
0.0
 71
     0
 42
3.175
  3
txt
  4

  0
ENDTAB
  0
TABLE
  2
VIEW
  5
6
330
0
100
AcDbSymbolTable
 70
     0
  0
ENDTAB
  0
TABLE
  2
UCS
  5
7
330
0
100
AcDbSymbolTable
 70
     0
  0
ENDTAB
  0
TABLE
  2
APPID
  5
9
330
0
100
AcDbSymbolTable
 70
     1
  0
APPID
  5
12
330
9
100
AcDbSymbolTableRecord
100
AcDbRegAppTableRecord
  2
ACAD
 70
     0
  0
ENDTAB
  0
TABLE
  2
DIMSTYLE
  5
A
330
0
100
AcDbSymbolTable
 70
     1
100
AcDbDimStyleTable
  0
DIMSTYLE
105
27
330
A
100
AcDbSymbolTableRecord
100
AcDbDimStyleTableRecord
  2
ISO-25
 70
     0
 41
2.5
 42
0.625
 43
3.75
 44
1.25
 73
     0
 74
     0
 77
     1
 78
     8
140
2.5
141
2.5
143
0.0393700787
147
0.625
171
     3
172
     1
178
     0
271
     2
272
     2
274
     3
278
    44
283
     0
284
     8
340
11
  0
ENDTAB
  0
TABLE
  2
BLOCK_RECORD
  5
1
330
0
100
AcDbSymbolTable
 70
     1
  0
BLOCK_RECORD
  5
1F
330
1
100
AcDbSymbolTableRecord
100
AcDbBlockTableRecord
  2
*Model_Space
340
22
  0
BLOCK_RECORD
  5
1B
330
1
100
AcDbSymbolTableRecord
100
AcDbBlockTableRecord
  2
*Paper_Space
340
1E
  0
BLOCK_RECORD
  5
23
330
1
100
AcDbSymbolTableRecord
100
AcDbBlockTableRecord
  2
*Paper_Space0
340
26
  0
ENDTAB
  0
ENDSEC
  0
SECTION
  2
BLOCKS
  0
BLOCK
  5
20
330
1F
100
AcDbEntity
  8
0
100
AcDbBlockBegin
  2
*Model_Space
 70
     0
 10
0.0
 20
0.0
 30
0.0
  3
*Model_Space
  1

  0
ENDBLK
  5
21
330
1F
100
AcDbEntity
  8
0
100
AcDbBlockEnd
  0
BLOCK
  5
1C
330
1B
100
AcDbEntity
 67
     1
  8
0
100
AcDbBlockBegin
  2
*Paper_Space
 70
     0
 10
0.0
 20
0.0
 30
0.0
  3
*Paper_Space
  1

  0
ENDBLK
  5
1D
330
1B
100
AcDbEntity
 67
     1
  8
0
100
AcDbBlockEnd
  0
BLOCK
  5
24
330
23
100
AcDbEntity
  8
0
100
AcDbBlockBegin
  2
*Paper_Space0
 70
     0
 10
0.0
 20
0.0
 30
0.0
  3
*Paper_Space0
  1

  0
ENDBLK
  5
25
330
23
100
AcDbEntity
  8
0
100
AcDbBlockEnd
  0
ENDSEC
  0
SECTION
  2
ENTITIES
  0
CIRCLE
  5
1E3
330
1F
100
AcDbEntity
  8
0
  6
Continuous
 62
     7
370
    25
100
AcDbCircle
 10
63.5897577408
 20
53.7907825212
 30
0.0
 40
13.24999999999998
  0
CIRCLE
  5
24A
330
1F
100
AcDbEntity
  8
0
  6
Continuous
 62
     7
370
    25
100
AcDbCircle
 10
-94.2886656291
 20
44.960710083
 30
0.0
 40
54.99999999999996
  0
LINE
  5
24B
330
1F
100
AcDbEntity
  8
0
  6
Continuous
 62
     7
370
    25
100
AcDbLine
 10
-213.9404914084
 20
36.7865664239
 30
0.0
 11
-217.067565226
 21
33.6594926062
 31
0.0
  0
LINE
  5
24C
330
1F
100
AcDbEntity
  8
0
  6
Continuous
 62
     7
370
    25
100
AcDbLine
 10
-223.9206390436
 20
36.7865664239
 30
0.0
 11
-213.9404914084
 21
36.7865664239
 31
0.0
  0
LINE
  5
24D
330
1F
100
AcDbEntity
  8
0
  6
Continuous
 62
     7
370
    25
100
AcDbLine
 10
-220.793565226
 20
33.6594926062
 30
0.0
 11
-223.9206390436
 21
36.7865664239
 31
0.0
  0
LINE
  5
24E
330
1F
100
AcDbEntity
  8
0
  6
Continuous
 62
     7
370
    25
100
AcDbLine
 10
-217.067565226
 20
33.6594926062
 30
0.0
 11
-220.793565226
 21
33.6594926062
 31
0.0
  0
LINE
  5
24F
330
1F
100
AcDbEntity
  8
0
  6
Continuous
 62
     7
370
    25
100
AcDbLine
 10
-220.793565226
 20
29.6833308802
 30
0.0
 11
-220.793565226
 21
26.9127452888
 31
0.0
  0
LINE
  5
250
330
1F
100
AcDbEntity
  8
0
  6
Continuous
 62
     7
370
    25
100
AcDbLine
 10
-223.9206390436
 20
29.6833308802
 30
0.0
 11
-220.793565226
 21
29.6833308802
 31
0.0
  0
LINE
  5
251
330
1F
100
AcDbEntity
  8
0
  6
Continuous
 62
     7
370
    25
100
AcDbLine
 10
-220.793565226
 20
26.9127452888
 30
0.0
 11
-223.9206390436
 21
29.6833308802
 31
0.0
  0
LINE
  5
252
330
1F
100
AcDbEntity
  8
0
  6
Continuous
 62
     7
370
    25
100
AcDbLine
 10
-195.4202258713
 20
65.7161943114
 30
0.0
 11
-199.5826928356
 21
57.3137098336
 31
0.0
  0
LINE
  5
253
330
1F
100
AcDbEntity
  8
0
  6
Continuous
 62
     7
370
    25
100
AcDbLine
 10
-199.5826928356
 20
65.7161943114
 30
0.0
 11
-195.4202258713
 21
65.7161943114
 31
0.0
  0
LINE
  5
254
330
1F
100
AcDbEntity
  8
0
  6
Continuous
 62
     7
370
    25
100
AcDbLine
 10
-199.5826928356
 20
57.3137098336
 30
0.0
 11
-199.5826928356
 21
65.7161943114
 31
0.0
  0
LINE
  5
255
330
1F
100
AcDbEntity
  8
0
  6
Continuous
 62
     7
370
    25
100
AcDbLine
 10
-242.4409045807
 20
65.7161943114
 30
0.0
 11
-238.2784376165
 21
65.7161943114
 31
0.0
  0
LINE
  5
256
330
1F
100
AcDbEntity
  8
0
  6
Continuous
 62
     7
370
    25
100
AcDbLine
 10
-238.2784376165
 20
57.3137098336
 30
0.0
 11
-242.4409045807
 21
65.7161943114
 31
0.0
  0
LINE
  5
257
330
1F
100
AcDbEntity
  8
0
  6
Continuous
 62
     7
370
    25
100
AcDbLine
 10
-238.2784376165
 20
65.7161943114
 30
0.0
 11
-238.2784376165
 21
57.3137098336
 31
0.0
  0
LINE
  5
258
330
1F
100
AcDbEntity
  8
0
  6
Continuous
 62
     7
370
    25
100
AcDbLine
 10
-217.067565226
 20
26.9127452888
 30
0.0
 11
-217.067565226
 21
29.6833308802
 31
0.0
  0
LINE
  5
259
330
1F
100
AcDbEntity
  8
0
  6
Continuous
 62
     7
370
    25
100
AcDbLine
 10
-213.9404914084
 20
29.6833308802
 30
0.0
 11
-217.067565226
 21
26.9127452888
 31
0.0
  0
LINE
  5
25A
330
1F
100
AcDbEntity
  8
0
  6
Continuous
 62
     7
370
    25
100
AcDbLine
 10
-217.067565226
 20
29.6833308802
 30
0.0
 11
-213.9404914084
 21
29.6833308802
 31
0.0
  0
LINE
  5
25B
330
1F
100
AcDbEntity
  8
0
  6
Continuous
 62
     7
370
    25
100
AcDbLine
 10
-220.930565226
 20
83.8754660117
 30
0.0
 11
-216.930565226
 21
83.8754660117
 31
0.0
  0
LINE
  5
25C
330
1F
100
AcDbEntity
  8
0
  6
Continuous
 62
     7
370
    25
100
AcDbLine
 10
-196.7044093998
 20
76.1493101854
 30
0.0
 11
-196.7044093998
 21
68.9561943114
 31
0.0
  0
LINE
  5
25D
330
1F
100
AcDbEntity
  8
0
  6
Continuous
 62
     7
370
    25
100
AcDbLine
 10
-196.7044093998
 20
68.9561943114
 30
0.0
 11
-190.7664093998
 21
68.9561943114
 31
0.0
  0
LINE
  5
25E
330
1F
100
AcDbEntity
  8
0
  6
Continuous
 62
     7
370
    25
100
AcDbLine
 10
-190.7664093998
 20
68.9561943114
 30
0.0
 11
-197.2464093998
 21
55.8754660117
 31
0.0
  0
LINE
  5
25F
330
1F
100
AcDbEntity
  8
0
  6
Continuous
 62
     7
370
    25
100
AcDbLine
 10
-197.2464093998
 20
55.8754660117
 30
0.0
 11
-197.2464093998
 21
49.3954660117
 31
0.0
  0
LINE
  5
260
330
1F
100
AcDbEntity
  8
0
  6
Continuous
 62
     7
370
    25
100
AcDbLine
 10
-197.2464093998
 20
49.3954660117
 30
0.0
 11
-204.5990660865
 21
34.5531659498
 31
0.0
  0
LINE
  5
261
330
1F
100
AcDbEntity
  8
0
  6
Continuous
 62
     7
370
    25
100
AcDbLine
 10
-204.5990660865
 20
34.5531659498
 30
0.0
 11
-204.5990660865
 21
28.0731659498
 31
0.0
  0
LINE
  5
262
330
1F
100
AcDbEntity
  8
0
  6
Continuous
 62
     7
370
    25
100
AcDbLine
 10
-204.5990660865
 20
28.0731659498
 30
0.0
 11
-218.930565226
 21
15.3754660117
 31
0.0
  0
LINE
  5
263
330
1F
100
AcDbEntity
  8
0
  6
Continuous
 62
     7
370
    25
100
AcDbLine
 10
-218.930565226
 20
15.3754660117
 30
0.0
 11
-233.2620643656
 21
28.0731659498
 31
0.0
  0
LINE
  5
264
330
1F
100
AcDbEntity
  8
0
  6
Continuous
 62
     7
370
    25
100
AcDbLine
 10
-233.2620643656
 20
28.0731659498
 30
0.0
 11
-233.2620643656
 21
34.5531659498
 31
0.0
  0
LINE
  5
265
330
1F
100
AcDbEntity
  8
0
  6
Continuous
 62
     7
370
    25
100
AcDbLine
 10
-233.2620643656
 20
34.5531659498
 30
0.0
 11
-240.6147210523
 21
49.3954660117
 31
0.0
  0
LINE
  5
266
330
1F
100
AcDbEntity
  8
0
  6
Continuous
 62
     7
370
    25
100
AcDbLine
 10
-240.6147210523
 20
49.3954660117
 30
0.0
 11
-240.6147210523
 21
55.8754660117
 31
0.0
  0
LINE
  5
267
330
1F
100
AcDbEntity
  8
0
  6
Continuous
 62
     7
370
    25
100
AcDbLine
 10
-240.6147210523
 20
55.8754660117
 30
0.0
 11
-247.0947210523
 21
68.9561943114
 31
0.0
  0
LINE
  5
268
330
1F
100
AcDbEntity
  8
0
  6
Continuous
 62
     7
370
    25
100
AcDbLine
 10
-247.0947210523
 20
68.9561943114
 30
0.0
 11
-241.1567210523
 21
68.9561943114
 31
0.0
  0
LINE
  5
269
330
1F
100
AcDbEntity
  8
0
  6
Continuous
 62
     7
370
    25
100
AcDbLine
 10
-241.1567210523
 20
68.9561943114
 30
0.0
 11
-241.1567210523
 21
76.1493101854
 31
0.0
  0
LINE
  5
26A
330
1F
100
AcDbEntity
  8
0
  6
Continuous
 62
     7
370
    25
100
AcDbLine
 10
-220.930565226
 20
96.3754660117
 30
0.0
 11
-220.930565226
 21
83.8754660117
 31
0.0
  0
LINE
  5
26B
330
1F
100
AcDbEntity
  8
0
  6
Continuous
 62
     7
370
    25
100
AcDbLine
 10
-241.1567210523
 20
76.1493101854
 30
0.0
 11
-220.930565226
 21
96.3754660117
 31
0.0
  0
LINE
  5
26C
330
1F
100
AcDbEntity
  8
0
  6
Continuous
 62
     7
370
    25
100
AcDbLine
 10
-216.930565226
 20
83.8754660117
 30
0.0
 11
-216.930565226
 21
96.3754660117
 31
0.0
  0
LINE
  5
26D
330
1F
100
AcDbEntity
  8
0
  6
Continuous
 62
     7
370
    25
100
AcDbLine
 10
-216.930565226
 20
96.3754660117
 30
0.0
 11
-196.7044093998
 21
76.1493101854
 31
0.0
  0
LINE
  5
26E
330
1F
100
AcDbEntity
  8
0
  6
Continuous
 62
     7
370
    25
100
AcDbLine
 10
-181.7178896034
 20
116.0421880038
 30
0.0
 11
-170.6288366754
 21
116.0421880038
 31
0.0
  0
LINE
  5
26F
330
1F
100
AcDbEntity
  8
0
  6
Continuous
 62
     7
370
    25
100
AcDbLine
 10
-178.2433631394
 20
112.5676615398
 30
0.0
 11
-181.7178896034
 21
116.0421880038
 31
0.0
  0
LINE
  5
270
330
1F
100
AcDbEntity
  8
0
  6
Continuous
 62
     7
370
    25
100
AcDbLine
 10
-174.1033631394
 20
112.5676615398
 30
0.0
 11
-178.2433631394
 21
112.5676615398
 31
0.0
  0
LINE
  5
271
330
1F
100
AcDbEntity
  8
0
  6
Continuous
 62
     7
370
    25
100
AcDbLine
 10
-170.6288366754
 20
116.0421880038
 30
0.0
 11
-174.1033631394
 21
112.5676615398
 31
0.0
  0
LINE
  5
272
330
1F
100
AcDbEntity
  8
0
  6
Continuous
 62
     7
370
    25
100
AcDbLine
 10
-178.2433631394
 20
108.1497040664
 30
0.0
 11
-178.2433631394
 21
105.0712756314
 31
0.0
  0
LINE
  5
273
330
1F
100
AcDbEntity
  8
0
  6
Continuous
 62
     7
370
    25
100
AcDbLine
 10
-181.7178896034
 20
108.1497040664
 30
0.0
 11
-178.2433631394
 21
108.1497040664
 31
0.0
  0
LINE
  5
274
330
1F
100
AcDbEntity
  8
0
  6
Continuous
 62
     7
370
    25
100
AcDbLine
 10
-178.2433631394
 20
105.0712756314
 30
0.0
 11
-181.7178896034
 21
108.1497040664
 31
0.0
  0
LINE
  5
275
330
1F
100
AcDbEntity
  8
0
  6
Continuous
 62
     7
370
    25
100
AcDbLine
 10
-150.0507638563
 20
148.18621899
 30
0.0
 11
-154.67572715
 21
138.8501251257
 31
0.0
  0
LINE
  5
276
330
1F
100
AcDbEntity
  8
0
  6
Continuous
 62
     7
370
    25
100
AcDbLine
 10
-154.67572715
 20
148.18621899
 30
0.0
 11
-150.0507638563
 21
148.18621899
 31
0.0
  0
LINE
  5
277
330
1F
100
AcDbEntity
  8
0
  6
Continuous
 62
     7
370
    25
100
AcDbLine
 10
-154.67572715
 20
138.8501251257
 30
0.0
 11
-154.67572715
 21
148.18621899
 31
0.0
  0
LINE
  5
278
330
1F
100
AcDbEntity
  8
0
  6
Continuous
 62
     7
370
    25
100
AcDbLine
 10
-197.6709991288
 20
148.18621899
 30
0.0
 11
-197.6709991288
 21
138.8501251257
 31
0.0
  0
LINE
  5
279
330
1F
100
AcDbEntity
  8
0
  6
Continuous
 62
     7
370
    25
100
AcDbLine
 10
-202.2959624224
 20
148.18621899
 30
0.0
 11
-197.6709991288
 21
148.18621899
 31
0.0
  0
LINE
  5
27A
330
1F
100
AcDbEntity
  8
0
  6
Continuous
 62
     7
370
    25
100
AcDbLine
 10
-197.6709991288
 20
138.8501251257
 30
0.0
 11
-202.2959624224
 21
148.18621899
 31
0.0
  0
LINE
  5
27B
330
1F
100
AcDbEntity
  8
0
  6
Continuous
 62
     7
370
    25
100
AcDbLine
 10
-174.1033631394
 20
105.0712756314
 30
0.0
 11
-174.1033631394
 21
108.1497040664
 31
0.0
  0
LINE
  5
27C
330
1F
100
AcDbEntity
  8
0
  6
Continuous
 62
     7
370
    25
100
AcDbLine
 10
-170.6288366754
 20
108.1497040664
 30
0.0
 11
-174.1033631394
 21
105.0712756314
 31
0.0
  0
LINE
  5
27D
330
1F
100
AcDbEntity
  8
0
  6
Continuous
 62
     7
370
    25
100
AcDbLine
 10
-174.1033631394
 20
108.1497040664
 30
0.0
 11
-170.6288366754
 21
108.1497040664
 31
0.0
  0
LINE
  5
27E
330
1F
100
AcDbEntity
  8
0
  6
Continuous
 62
     7
370
    25
100
AcDbLine
 10
-178.1733631394
 20
169.7520764347
 30
0.0
 11
-174.1733631394
 21
169.7520764347
 31
0.0
  0
LINE
  5
27F
330
1F
100
AcDbEntity
  8
0
  6
Continuous
 62
     7
370
    25
100
AcDbLine
 10
-151.6998566657
 20
159.778569961
 30
0.0
 11
-151.6998566657
 21
151.78621899
 31
0.0
  0
LINE
  5
280
330
1F
100
AcDbEntity
  8
0
  6
Continuous
 62
     7
370
    25
100
AcDbLine
 10
-151.6998566657
 20
151.78621899
 30
0.0
 11
-144.8798566657
 21
151.78621899
 31
0.0
  0
LINE
  5
281
330
1F
100
AcDbEntity
  8
0
  6
Continuous
 62
     7
370
    25
100
AcDbLine
 10
-144.8798566657
 20
151.78621899
 30
0.0
 11
-152.0798566657
 21
137.2520764347
 31
0.0
  0
LINE
  5
282
330
1F
100
AcDbEntity
  8
0
  6
Continuous
 62
     7
370
    25
100
AcDbLine
 10
-152.0798566657
 20
137.2520764347
 30
0.0
 11
-152.0798566657
 21
130.0520764347
 31
0.0
  0
LINE
  5
283
330
1F
100
AcDbEntity
  8
0
  6
Continuous
 62
     7
370
    25
100
AcDbLine
 10
-152.0798566657
 20
130.0520764347
 30
0.0
 11
-160.2494752065
 21
113.5606319215
 31
0.0
  0
LINE
  5
284
330
1F
100
AcDbEntity
  8
0
  6
Continuous
 62
     7
370
    25
100
AcDbLine
 10
-160.2494752065
 20
113.5606319215
 30
0.0
 11
-160.2494752065
 21
106.3606319215
 31
0.0
  0
LINE
  5
285
330
1F
100
AcDbEntity
  8
0
  6
Continuous
 62
     7
370
    25
100
AcDbLine
 10
-160.2494752065
 20
106.3606319215
 30
0.0
 11
-176.1733631394
 21
92.2520764347
 31
0.0
  0
LINE
  5
286
330
1F
100
AcDbEntity
  8
0
  6
Continuous
 62
     7
370
    25
100
AcDbLine
 10
-176.1733631394
 20
92.2520764347
 30
0.0
 11
-192.0972510722
 21
106.3606319215
 31
0.0
  0
LINE
  5
287
330
1F
100
AcDbEntity
  8
0
  6
Continuous
 62
     7
370
    25
100
AcDbLine
 10
-192.0972510722
 20
106.3606319215
 30
0.0
 11
-192.0972510722
 21
113.5606319215
 31
0.0
  0
LINE
  5
288
330
1F
100
AcDbEntity
  8
0
  6
Continuous
 62
     7
370
    25
100
AcDbLine
 10
-192.0972510722
 20
113.5606319215
 30
0.0
 11
-200.266869613
 21
130.0520764347
 31
0.0
  0
LINE
  5
289
330
1F
100
AcDbEntity
  8
0
  6
Continuous
 62
     7
370
    25
100
AcDbLine
 10
-200.266869613
 20
130.0520764347
 30
0.0
 11
-200.266869613
 21
137.2520764347
 31
0.0
  0
LINE
  5
28A
330
1F
100
AcDbEntity
  8
0
  6
Continuous
 62
     7
370
    25
100
AcDbLine
 10
-200.266869613
 20
137.2520764347
 30
0.0
 11
-207.466869613
 21
151.78621899
 31
0.0
  0
LINE
  5
28B
330
1F
100
AcDbEntity
  8
0
  6
Continuous
 62
     7
370
    25
100
AcDbLine
 10
-207.466869613
 20
151.78621899
 30
0.0
 11
-200.646869613
 21
151.78621899
 31
0.0
  0
LINE
  5
28C
330
1F
100
AcDbEntity
  8
0
  6
Continuous
 62
     7
370
    25
100
AcDbLine
 10
-200.646869613
 20
151.78621899
 30
0.0
 11
-200.646869613
 21
159.778569961
 31
0.0
  0
LINE
  5
28D
330
1F
100
AcDbEntity
  8
0
  6
Continuous
 62
     7
370
    25
100
AcDbLine
 10
-200.646869613
 20
159.778569961
 30
0.0
 11
-178.1733631394
 21
182.2520764347
 31
0.0
  0
LINE
  5
28E
330
1F
100
AcDbEntity
  8
0
  6
Continuous
 62
     7
370
    25
100
AcDbLine
 10
-174.1733631394
 20
182.2520764347
 30
0.0
 11
-151.6998566657
 21
159.778569961
 31
0.0
  0
LINE
  5
28F
330
1F
100
AcDbEntity
  8
0
  6
Continuous
 62
     7
370
    25
100
AcDbLine
 10
-178.1733631394
 20
182.2520764347
 30
0.0
 11
-178.1733631394
 21
169.7520764347
 31
0.0
  0
LINE
  5
290
330
1F
100
AcDbEntity
  8
0
  6
Continuous
 62
     7
370
    25
100
AcDbLine
 10
-174.1733631394
 20
169.7520764347
 30
0.0
 11
-174.1733631394
 21
182.2520764347
 31
0.0
  0
LINE
  5
291
330
1F
100
AcDbEntity
  8
0
  6
Continuous
 62
     7
370
    25
100
AcDbLine
 10
-82.4912535242
 20
197.8272472298
 30
0.0
 11
-87.6943372296
 21
187.3241416325
 31
0.0
  0
LINE
  5
292
330
1F
100
AcDbEntity
  8
0
  6
Continuous
 62
     7
370
    25
100
AcDbLine
 10
-87.6943372296
 20
197.8272472298
 30
0.0
 11
-82.4912535242
 21
197.8272472298
 31
0.0
  0
LINE
  5
293
330
1F
100
AcDbEntity
  8
0
  6
Continuous
 62
     7
370
    25
100
AcDbLine
 10
-87.6943372296
 20
187.3241416325
 30
0.0
 11
-87.6943372296
 21
197.8272472298
 31
0.0
  0
LINE
  5
294
330
1F
100
AcDbEntity
  8
0
  6
Continuous
 62
     7
370
    25
100
AcDbLine
 10
-105.6415854456
 20
152.7861679408
 30
0.0
 11
-109.5504277176
 21
149.3229359515
 31
0.0
  0
LINE
  5
295
330
1F
100
AcDbEntity
  8
0
  6
Continuous
 62
     7
370
    25
100
AcDbLine
 10
-105.6415854456
 20
152.7861679408
 30
0.0
 11
-109.5504277176
 21
152.7861679408
 31
0.0
  0
LINE
  5
296
330
1F
100
AcDbEntity
  8
0
  6
Continuous
 62
     7
370
    25
100
AcDbLine
 10
-109.5504277176
 20
149.3229359515
 30
0.0
 11
-109.5504277176
 21
152.7861679408
 31
0.0
  0
LINE
  5
297
330
1F
100
AcDbEntity
  8
0
  6
Continuous
 62
     7
370
    25
100
AcDbLine
 10
-135.0015182057
 20
197.8272472298
 30
0.0
 11
-140.2046019111
 21
197.8272472298
 31
0.0
  0
LINE
  5
298
330
1F
100
AcDbEntity
  8
0
  6
Continuous
 62
     7
370
    25
100
AcDbLine
 10
-140.2046019111
 20
197.8272472298
 30
0.0
 11
-135.0015182057
 21
187.3241416325
 31
0.0
  0
LINE
  5
299
330
1F
100
AcDbEntity
  8
0
  6
Continuous
 62
     7
370
    25
100
AcDbLine
 10
-135.0015182057
 20
187.3241416325
 30
0.0
 11
-135.0015182057
 21
197.8272472298
 31
0.0
  0
LINE
  5
29A
330
1F
100
AcDbEntity
  8
0
  6
Continuous
 62
     7
370
    25
100
AcDbLine
 10
-117.0542699897
 20
152.7861679408
 30
0.0
 11
-113.1454277177
 21
149.3229359515
 31
0.0
  0
LINE
  5
29B
330
1F
100
AcDbEntity
  8
0
  6
Continuous
 62
     7
370
    25
100
AcDbLine
 10
-113.1454277177
 20
149.3229359515
 30
0.0
 11
-113.1454277177
 21
152.7861679408
 31
0.0
  0
LINE
  5
29C
330
1F
100
AcDbEntity
  8
0
  6
Continuous
 62
     7
370
    25
100
AcDbLine
 10
-117.0542699897
 20
152.7861679408
 30
0.0
 11
-113.1454277177
 21
152.7861679408
 31
0.0
  0
LINE
  5
29D
330
1F
100
AcDbEntity
  8
0
  6
Continuous
 62
     7
370
    25
100
AcDbLine
 10
-129.2623016421
 20
150.7734617778
 30
0.0
 11
-111.3479277176
 21
134.9013368551
 31
0.0
  0
LINE
  5
29E
330
1F
100
AcDbEntity
  8
0
  6
Continuous
 62
     7
370
    25
100
AcDbLine
 10
-129.2623016421
 20
158.8734617778
 30
0.0
 11
-129.2623016421
 21
150.7734617778
 31
0.0
  0
LINE
  5
29F
330
1F
100
AcDbEntity
  8
0
  6
Continuous
 62
     7
370
    25
100
AcDbLine
 10
-138.4531225005
 20
177.4263368551
 30
0.0
 11
-129.2623016421
 21
158.8734617778
 31
0.0
  0
LINE
  5
2A0
330
1F
100
AcDbEntity
  8
0
  6
Continuous
 62
     7
370
    25
100
AcDbLine
 10
-138.4531225005
 20
185.5263368551
 30
0.0
 11
-138.4531225005
 21
177.4263368551
 31
0.0
  0
LINE
  5
2A1
330
1F
100
AcDbEntity
  8
0
  6
Continuous
 62
     7
370
    25
100
AcDbLine
 10
-146.5531225005
 20
201.8772472298
 30
0.0
 11
-138.4531225005
 21
185.5263368551
 31
0.0
  0
LINE
  5
2A2
330
1F
100
AcDbEntity
  8
0
  6
Continuous
 62
     7
370
    25
100
AcDbLine
 10
-138.6306225005
 20
201.8772472298
 30
0.0
 11
-146.5531225005
 21
201.8772472298
 31
0.0
  0
LINE
  5
2A3
330
1F
100
AcDbEntity
  8
0
  6
Continuous
 62
     7
370
    25
100
AcDbLine
 10
-138.6306225005
 20
210.8686420723
 30
0.0
 11
-138.6306225005
 21
201.8772472298
 31
0.0
  0
LINE
  5
2A4
330
1F
100
AcDbEntity
  8
0
  6
Continuous
 62
     7
370
    25
100
AcDbLine
 10
-113.3479277176
 20
236.1513368551
 30
0.0
 11
-138.6306225005
 21
210.8686420723
 31
0.0
  0
LINE
  5
2A5
330
1F
100
AcDbEntity
  8
0
  6
Continuous
 62
     7
370
    25
100
AcDbLine
 10
-113.3479277176
 20
223.6513368551
 30
0.0
 11
-109.3479277176
 21
223.6513368551
 31
0.0
  0
LINE
  5
2A6
330
1F
100
AcDbEntity
  8
0
  6
Continuous
 62
     7
370
    25
100
AcDbLine
 10
-109.3479277176
 20
223.6513368551
 30
0.0
 11
-109.3479277176
 21
236.1513368551
 31
0.0
  0
LINE
  5
2A7
330
1F
100
AcDbEntity
  8
0
  6
Continuous
 62
     7
370
    25
100
AcDbLine
 10
-109.3479277176
 20
236.1513368551
 30
0.0
 11
-84.0652329348
 21
210.8686420723
 31
0.0
  0
LINE
  5
2A8
330
1F
100
AcDbEntity
  8
0
  6
Continuous
 62
     7
370
    25
100
AcDbLine
 10
-84.0652329348
 20
210.8686420723
 30
0.0
 11
-84.0652329348
 21
201.8772472298
 31
0.0
  0
LINE
  5
2A9
330
1F
100
AcDbEntity
  8
0
  6
Continuous
 62
     7
370
    25
100
AcDbLine
 10
-84.0652329348
 20
201.8772472298
 30
0.0
 11
-76.1427329348
 21
201.8772472298
 31
0.0
  0
LINE
  5
2AA
330
1F
100
AcDbEntity
  8
0
  6
Continuous
 62
     7
370
    25
100
AcDbLine
 10
-76.1427329348
 20
201.8772472298
 30
0.0
 11
-84.2427329348
 21
185.5263368551
 31
0.0
  0
LINE
  5
2AB
330
1F
100
AcDbEntity
  8
0
  6
Continuous
 62
     7
370
    25
100
AcDbLine
 10
-84.2427329348
 20
185.5263368551
 30
0.0
 11
-84.2427329348
 21
177.4263368551
 31
0.0
  0
LINE
  5
2AC
330
1F
100
AcDbEntity
  8
0
  6
Continuous
 62
     7
370
    25
100
AcDbLine
 10
-84.2427329348
 20
177.4263368551
 30
0.0
 11
-93.4335537932
 21
158.8734617778
 31
0.0
  0
LINE
  5
2AD
330
1F
100
AcDbEntity
  8
0
  6
Continuous
 62
     7
370
    25
100
AcDbLine
 10
-93.4335537932
 20
158.8734617778
 30
0.0
 11
-93.4335537932
 21
150.7734617778
 31
0.0
  0
LINE
  5
2AE
330
1F
100
AcDbEntity
  8
0
  6
Continuous
 62
     7
370
    25
100
AcDbLine
 10
-93.4335537932
 20
150.7734617778
 30
0.0
 11
-111.3479277176
 21
134.9013368551
 31
0.0
  0
LINE
  5
2AF
330
1F
100
AcDbEntity
  8
0
  6
Continuous
 62
     7
370
    25
100
AcDbLine
 10
-105.6165854456
 20
161.6652123703
 30
0.0
 11
-109.5254277176
 21
157.7563700983
 31
0.0
  0
LINE
  5
2B0
330
1F
100
AcDbEntity
  8
0
  6
Continuous
 62
     7
370
    25
100
AcDbLine
 10
-105.6165854456
 20
161.6652123703
 30
0.0
 11
-117.0792699896
 21
161.6652123703
 31
0.0
  0
LINE
  5
2B1
330
1F
100
AcDbEntity
  8
0
  6
Continuous
 62
     7
370
    25
100
AcDbLine
 10
-117.0792699896
 20
161.6652123703
 30
0.0
 11
-113.1704277176
 21
157.7563700983
 31
0.0
  0
LINE
  5
2B2
330
1F
100
AcDbEntity
  8
0
  6
Continuous
 62
     7
370
    25
100
AcDbLine
 10
-113.1704277176
 20
157.7563700983
 30
0.0
 11
-109.5254277176
 21
157.7563700983
 31
0.0
  0
LINE
  5
2B3
330
1F
100
AcDbEntity
  8
0
  6
Continuous
 62
     7
370
    25
100
AcDbLine
 10
-113.3479277176
 20
236.1513368551
 30
0.0
 11
-113.3479277176
 21
223.6513368551
 31
0.0
  0
LINE
  5
2B4
330
1F
100
AcDbEntity
  8
0
  6
Continuous
 62
     7
370
    25
100
AcDbLine
 10
-25.9343559137
 20
138.1756052195
 30
0.0
 11
-30.2775139937
 21
133.8324471394
 31
0.0
  0
LINE
  5
2B5
330
1F
100
AcDbEntity
  8
0
  6
Continuous
 62
     7
370
    25
100
AcDbLine
 10
-38.6706720737
 20
138.1756052195
 30
0.0
 11
-25.9343559137
 21
138.1756052195
 31
0.0
  0
LINE
  5
2B6
330
1F
100
AcDbEntity
  8
0
  6
Continuous
 62
     7
370
    25
100
AcDbLine
 10
-34.3275139937
 20
133.8324471394
 30
0.0
 11
-38.6706720737
 21
138.1756052195
 31
0.0
  0
LINE
  5
2B7
330
1F
100
AcDbEntity
  8
0
  6
Continuous
 62
     7
370
    25
100
AcDbLine
 10
-30.2775139937
 20
133.8324471394
 30
0.0
 11
-34.3275139937
 21
133.8324471394
 31
0.0
  0
LINE
  5
2B8
330
1F
100
AcDbEntity
  8
0
  6
Continuous
 62
     7
370
    25
100
AcDbLine
 10
-34.0775139937
 20
128.3100002978
 30
0.0
 11
-34.0775139937
 21
124.461964754
 31
0.0
  0
LINE
  5
2B9
330
1F
100
AcDbEntity
  8
0
  6
Continuous
 62
     7
370
    25
100
AcDbLine
 10
-38.4206720737
 20
128.3100002978
 30
0.0
 11
-34.0775139937
 21
128.3100002978
 31
0.0
  0
LINE
  5
2BA
330
1F
100
AcDbEntity
  8
0
  6
Continuous
 62
     7
370
    25
100
AcDbLine
 10
-34.0775139937
 20
124.461964754
 30
0.0
 11
-38.4206720737
 21
128.3100002978
 31
0.0
  0
LINE
  5
2BB
330
1F
100
AcDbEntity
  8
0
  6
Continuous
 62
     7
370
    25
100
AcDbLine
 10
-6.242969007
 20
178.3556439522
 30
0.0
 11
-0.4617648899
 21
178.3556439522
 31
0.0
  0
LINE
  5
2BC
330
1F
100
AcDbEntity
  8
0
  6
Continuous
 62
     7
370
    25
100
AcDbLine
 10
-6.242969007
 20
166.6855266219
 30
0.0
 11
-6.242969007
 21
178.3556439522
 31
0.0
  0
LINE
  5
2BD
330
1F
100
AcDbEntity
  8
0
  6
Continuous
 62
     7
370
    25
100
AcDbLine
 10
-0.4617648899
 20
178.3556439522
 30
0.0
 11
-6.242969007
 21
166.6855266219
 31
0.0
  0
LINE
  5
2BE
330
1F
100
AcDbEntity
  8
0
  6
Continuous
 62
     7
370
    25
100
AcDbLine
 10
-58.3620589805
 20
178.3556439522
 30
0.0
 11
-58.3620589805
 21
166.6855266219
 31
0.0
  0
LINE
  5
2BF
330
1F
100
AcDbEntity
  8
0
  6
Continuous
 62
     7
370
    25
100
AcDbLine
 10
-64.1432630975
 20
178.3556439522
 30
0.0
 11
-58.3620589805
 21
178.3556439522
 31
0.0
  0
LINE
  5
2C0
330
1F
100
AcDbEntity
  8
0
  6
Continuous
 62
     7
370
    25
100
AcDbLine
 10
-58.3620589805
 20
166.6855266219
 30
0.0
 11
-64.1432630975
 21
178.3556439522
 31
0.0
  0
LINE
  5
2C1
330
1F
100
AcDbEntity
  8
0
  6
Continuous
 62
     7
370
    25
100
AcDbLine
 10
-26.1843559137
 20
128.3100002978
 30
0.0
 11
-30.5275139937
 21
124.461964754
 31
0.0
  0
LINE
  5
2C2
330
1F
100
AcDbEntity
  8
0
  6
Continuous
 62
     7
370
    25
100
AcDbLine
 10
-30.5275139937
 20
128.3100002978
 30
0.0
 11
-26.1843559137
 21
128.3100002978
 31
0.0
  0
LINE
  5
2C3
330
1F
100
AcDbEntity
  8
0
  6
Continuous
 62
     7
370
    25
100
AcDbLine
 10
-30.5275139937
 20
124.461964754
 30
0.0
 11
-30.5275139937
 21
128.3100002978
 31
0.0
  0
LINE
  5
2C4
330
1F
100
AcDbEntity
  8
0
  6
Continuous
 62
     7
370
    25
100
AcDbLine
 10
-34.3025139937
 20
208.4379657581
 30
0.0
 11
-30.3025139937
 21
208.4379657581
 31
0.0
  0
LINE
  5
2C5
330
1F
100
AcDbEntity
  8
0
  6
Continuous
 62
     7
370
    25
100
AcDbLine
 10
-2.2106309017
 20
192.846082666
 30
0.0
 11
-2.2106309017
 21
182.8556439522
 31
0.0
  0
LINE
  5
2C6
330
1F
100
AcDbEntity
  8
0
  6
Continuous
 62
     7
370
    25
100
AcDbLine
 10
-2.2106309017
 20
182.8556439522
 30
0.0
 11
6.8143690983
 21
182.8556439522
 31
0.0
  0
LINE
  5
2C7
330
1F
100
AcDbEntity
  8
0
  6
Continuous
 62
     7
370
    25
100
AcDbLine
 10
6.8143690983
 20
182.8556439522
 30
0.0
 11
-2.1856309017
 21
164.6879657581
 31
0.0
  0
LINE
  5
2C8
330
1F
100
AcDbEntity
  8
0
  6
Continuous
 62
     7
370
    25
100
AcDbLine
 10
-2.1856309017
 20
164.6879657581
 30
0.0
 11
-2.1856309017
 21
155.6879657581
 31
0.0
  0
LINE
  5
2C9
330
1F
100
AcDbEntity
  8
0
  6
Continuous
 62
     7
370
    25
100
AcDbLine
 10
-2.1856309017
 20
155.6879657581
 30
0.0
 11
-12.3976540777
 21
135.0736601166
 31
0.0
  0
LINE
  5
2CA
330
1F
100
AcDbEntity
  8
0
  6
Continuous
 62
     7
370
    25
100
AcDbLine
 10
-12.3976540777
 20
135.0736601166
 30
0.0
 11
-12.3976540777
 21
126.0736601166
 31
0.0
  0
LINE
  5
2CB
330
1F
100
AcDbEntity
  8
0
  6
Continuous
 62
     7
370
    25
100
AcDbLine
 10
-12.3976540777
 20
126.0736601166
 30
0.0
 11
-32.3025139937
 21
108.4379657581
 31
0.0
  0
LINE
  5
2CC
330
1F
100
AcDbEntity
  8
0
  6
Continuous
 62
     7
370
    25
100
AcDbLine
 10
-32.3025139937
 20
108.4379657581
 30
0.0
 11
-52.2073739098
 21
126.0736601166
 31
0.0
  0
LINE
  5
2CD
330
1F
100
AcDbEntity
  8
0
  6
Continuous
 62
     7
370
    25
100
AcDbLine
 10
-52.2073739098
 20
126.0736601166
 30
0.0
 11
-52.2073739098
 21
135.0736601166
 31
0.0
  0
LINE
  5
2CE
330
1F
100
AcDbEntity
  8
0
  6
Continuous
 62
     7
370
    25
100
AcDbLine
 10
-52.2073739098
 20
135.0736601166
 30
0.0
 11
-62.4193970858
 21
155.6879657581
 31
0.0
  0
LINE
  5
2CF
330
1F
100
AcDbEntity
  8
0
  6
Continuous
 62
     7
370
    25
100
AcDbLine
 10
-62.4193970858
 20
155.6879657581
 30
0.0
 11
-62.4193970858
 21
164.6879657581
 31
0.0
  0
LINE
  5
2D0
330
1F
100
AcDbEntity
  8
0
  6
Continuous
 62
     7
370
    25
100
AcDbLine
 10
-62.4193970858
 20
164.6879657581
 30
0.0
 11
-71.4193970858
 21
182.8556439522
 31
0.0
  0
LINE
  5
2D1
330
1F
100
AcDbEntity
  8
0
  6
Continuous
 62
     7
370
    25
100
AcDbLine
 10
-71.4193970858
 20
182.8556439522
 30
0.0
 11
-62.3943970858
 21
182.8556439522
 31
0.0
  0
LINE
  5
2D2
330
1F
100
AcDbEntity
  8
0
  6
Continuous
 62
     7
370
    25
100
AcDbLine
 10
-62.3943970858
 20
182.8556439522
 30
0.0
 11
-62.3943970858
 21
192.846082666
 31
0.0
  0
LINE
  5
2D3
330
1F
100
AcDbEntity
  8
0
  6
Continuous
 62
     7
370
    25
100
AcDbLine
 10
-30.3025139937
 20
208.4379657581
 30
0.0
 11
-30.3025139937
 21
220.9379657581
 31
0.0
  0
LINE
  5
2D4
330
1F
100
AcDbEntity
  8
0
  6
Continuous
 62
     7
370
    25
100
AcDbLine
 10
-30.3025139937
 20
220.9379657581
 30
0.0
 11
-2.2106309017
 21
192.846082666
 31
0.0
  0
LINE
  5
2D5
330
1F
100
AcDbEntity
  8
0
  6
Continuous
 62
     7
370
    25
100
AcDbLine
 10
-34.3025139937
 20
220.9379657581
 30
0.0
 11
-34.3025139937
 21
208.4379657581
 31
0.0
  0
LINE
  5
2D6
330
1F
100
AcDbEntity
  8
0
  6
Continuous
 62
     7
370
    25
100
AcDbLine
 10
-62.3943970858
 20
192.846082666
 30
0.0
 11
-34.3025139937
 21
220.9379657581
 31
0.0
  0
LINE
  5
2D7
330
1F
100
AcDbEntity
  8
0
  6
Continuous
 62
     7
370
    25
100
AcDbLine
 10
54.1251725378
 20
175.6543683998
 30
0.0
 11
49.2994413378
 21
170.8286371998
 31
0.0
  0
LINE
  5
2D8
330
1F
100
AcDbEntity
  8
0
  6
Continuous
 62
     7
370
    25
100
AcDbLine
 10
40.4737101378
 20
175.6543683998
 30
0.0
 11
54.1251725378
 21
175.6543683998
 31
0.0
  0
LINE
  5
2D9
330
1F
100
AcDbEntity
  8
0
  6
Continuous
 62
     7
370
    25
100
AcDbLine
 10
45.2994413378
 20
170.8286371998
 30
0.0
 11
40.4737101378
 21
175.6543683998
 31
0.0
  0
LINE
  5
2DA
330
1F
100
AcDbEntity
  8
0
  6
Continuous
 62
     7
370
    25
100
AcDbLine
 10
49.2994413378
 20
170.8286371998
 30
0.0
 11
45.2994413378
 21
170.8286371998
 31
0.0
  0
LINE
  5
2DB
330
1F
100
AcDbEntity
  8
0
  6
Continuous
 62
     7
370
    25
100
AcDbLine
 10
40.4737101378
 20
164.6925851535
 30
0.0
 11
45.2994413378
 21
164.6925851535
 31
0.0
  0
LINE
  5
2DC
330
1F
100
AcDbEntity
  8
0
  6
Continuous
 62
     7
370
    25
100
AcDbLine
 10
45.2994413378
 20
160.4169901049
 30
0.0
 11
40.4737101378
 21
164.6925851535
 31
0.0
  0
LINE
  5
2DD
330
1F
100
AcDbEntity
  8
0
  6
Continuous
 62
     7
370
    25
100
AcDbLine
 10
45.2994413378
 20
164.6925851535
 30
0.0
 11
45.2994413378
 21
160.4169901049
 31
0.0
  0
LINE
  5
2DE
330
1F
100
AcDbEntity
  8
0
  6
Continuous
 62
     7
370
    25
100
AcDbLine
 10
82.2058292309
 20
220.2988558806
 30
0.0
 11
75.7822691009
 21
207.332058847
 31
0.0
  0
LINE
  5
2DF
330
1F
100
AcDbEntity
  8
0
  6
Continuous
 62
     7
370
    25
100
AcDbLine
 10
75.7822691009
 20
220.2988558806
 30
0.0
 11
82.2058292309
 21
220.2988558806
 31
0.0
  0
LINE
  5
2E0
330
1F
100
AcDbEntity
  8
0
  6
Continuous
 62
     7
370
    25
100
AcDbLine
 10
75.7822691009
 20
207.332058847
 30
0.0
 11
75.7822691009
 21
220.2988558806
 31
0.0
  0
LINE
  5
2E1
330
1F
100
AcDbEntity
  8
0
  6
Continuous
 62
     7
370
    25
100
AcDbLine
 10
11.8930534447
 20
220.2988558806
 30
0.0
 11
18.3166135747
 21
220.2988558806
 31
0.0
  0
LINE
  5
2E2
330
1F
100
AcDbEntity
  8
0
  6
Continuous
 62
     7
370
    25
100
AcDbLine
 10
18.3166135747
 20
207.332058847
 30
0.0
 11
11.8930534447
 21
220.2988558806
 31
0.0
  0
LINE
  5
2E3
330
1F
100
AcDbEntity
  8
0
  6
Continuous
 62
     7
370
    25
100
AcDbLine
 10
18.3166135747
 20
220.2988558806
 30
0.0
 11
18.3166135747
 21
207.332058847
 31
0.0
  0
LINE
  5
2E4
330
1F
100
AcDbEntity
  8
0
  6
Continuous
 62
     7
370
    25
100
AcDbLine
 10
53.6251725378
 20
164.6925851535
 30
0.0
 11
48.7994413378
 21
160.4169901049
 31
0.0
  0
LINE
  5
2E5
330
1F
100
AcDbEntity
  8
0
  6
Continuous
 62
     7
370
    25
100
AcDbLine
 10
48.7994413378
 20
164.6925851535
 30
0.0
 11
53.6251725378
 21
164.6925851535
 31
0.0
  0
LINE
  5
2E6
330
1F
100
AcDbEntity
  8
0
  6
Continuous
 62
     7
370
    25
100
AcDbLine
 10
48.7994413378
 20
160.4169901049
 30
0.0
 11
48.7994413378
 21
164.6925851535
 31
0.0
  0
LINE
  5
2E7
330
1F
100
AcDbEntity
  8
0
  6
Continuous
 62
     7
370
    25
100
AcDbLine
 10
45.0494413378
 20
255.112546776
 30
0.0
 11
49.0494413378
 21
255.112546776
 31
0.0
  0
LINE
  5
2E8
330
1F
100
AcDbEntity
  8
0
  6
Continuous
 62
     7
370
    25
100
AcDbLine
 10
80.2626447734
 20
236.3993433404
 30
0.0
 11
80.2626447734
 21
225.2988558806
 31
0.0
  0
LINE
  5
2E9
330
1F
100
AcDbEntity
  8
0
  6
Continuous
 62
     7
370
    25
100
AcDbLine
 10
80.2626447734
 20
225.2988558806
 30
0.0
 11
90.5126447734
 21
225.2988558806
 31
0.0
  0
LINE
  5
2EA
330
1F
100
AcDbEntity
  8
0
  6
Continuous
 62
     7
370
    25
100
AcDbLine
 10
90.5126447734
 20
225.2988558806
 30
0.0
 11
80.5126447734
 21
205.112546776
 31
0.0
  0
LINE
  5
2EB
330
1F
100
AcDbEntity
  8
0
  6
Continuous
 62
     7
370
    25
100
AcDbLine
 10
80.5126447734
 20
205.112546776
 30
0.0
 11
80.5126447734
 21
195.112546776
 31
0.0
  0
LINE
  5
2EC
330
1F
100
AcDbEntity
  8
0
  6
Continuous
 62
     7
370
    25
100
AcDbLine
 10
80.5126447734
 20
195.112546776
 30
0.0
 11
69.1659523556
 21
172.20776273
 31
0.0
  0
LINE
  5
2ED
330
1F
100
AcDbEntity
  8
0
  6
Continuous
 62
     7
370
    25
100
AcDbLine
 10
69.1659523556
 20
172.20776273
 30
0.0
 11
69.1659523556
 21
162.20776273
 31
0.0
  0
LINE
  5
2EE
330
1F
100
AcDbEntity
  8
0
  6
Continuous
 62
     7
370
    25
100
AcDbLine
 10
69.1659523556
 20
162.20776273
 30
0.0
 11
47.0494413378
 21
142.612546776
 31
0.0
  0
LINE
  5
2EF
330
1F
100
AcDbEntity
  8
0
  6
Continuous
 62
     7
370
    25
100
AcDbLine
 10
47.0494413378
 20
142.612546776
 30
0.0
 11
24.93293032
 21
162.20776273
 31
0.0
  0
LINE
  5
2F0
330
1F
100
AcDbEntity
  8
0
  6
Continuous
 62
     7
370
    25
100
AcDbLine
 10
24.93293032
 20
162.20776273
 30
0.0
 11
24.93293032
 21
172.20776273
 31
0.0
  0
LINE
  5
2F1
330
1F
100
AcDbEntity
  8
0
  6
Continuous
 62
     7
370
    25
100
AcDbLine
 10
24.93293032
 20
172.20776273
 30
0.0
 11
13.5862379022
 21
195.112546776
 31
0.0
  0
LINE
  5
2F2
330
1F
100
AcDbEntity
  8
0
  6
Continuous
 62
     7
370
    25
100
AcDbLine
 10
13.5862379022
 20
195.112546776
 30
0.0
 11
13.5862379022
 21
205.112546776
 31
0.0
  0
LINE
  5
2F3
330
1F
100
AcDbEntity
  8
0
  6
Continuous
 62
     7
370
    25
100
AcDbLine
 10
13.5862379022
 20
205.112546776
 30
0.0
 11
3.5862379022
 21
225.2988558806
 31
0.0
  0
LINE
  5
2F4
330
1F
100
AcDbEntity
  8
0
  6
Continuous
 62
     7
370
    25
100
AcDbLine
 10
3.5862379022
 20
225.2988558806
 30
0.0
 11
13.8362379022
 21
225.2988558806
 31
0.0
  0
LINE
  5
2F5
330
1F
100
AcDbEntity
  8
0
  6
Continuous
 62
     7
370
    25
100
AcDbLine
 10
13.8362379022
 20
225.2988558806
 30
0.0
 11
13.8362379022
 21
236.3993433404
 31
0.0
  0
LINE
  5
2F6
330
1F
100
AcDbEntity
  8
0
  6
Continuous
 62
     7
370
    25
100
AcDbLine
 10
13.8362379022
 20
236.3993433404
 30
0.0
 11
45.0494413378
 21
267.612546776
 31
0.0
  0
LINE
  5
2F7
330
1F
100
AcDbEntity
  8
0
  6
Continuous
 62
     7
370
    25
100
AcDbLine
 10
49.0494413378
 20
255.112546776
 30
0.0
 11
49.0494413378
 21
267.612546776
 31
0.0
  0
LINE
  5
2F8
330
1F
100
AcDbEntity
  8
0
  6
Continuous
 62
     7
370
    25
100
AcDbLine
 10
49.0494413378
 20
267.612546776
 30
0.0
 11
80.2626447734
 21
236.3993433404
 31
0.0
  0
LINE
  5
2F9
330
1F
100
AcDbEntity
  8
0
  6
Continuous
 62
     7
370
    25
100
AcDbLine
 10
45.0494413378
 20
267.612546776
 30
0.0
 11
45.0494413378
 21
255.112546776
 31
0.0
  0
LINE
  5
2FA
330
1F
100
AcDbEntity
  8
0
  6
Continuous
 62
     7
370
    25
100
AcDbLine
 10
231.2866221138
 20
-24.992786297
 30
0.0
 11
218.6211528116
 21
-31.1701484251
 31
0.0
  0
LINE
  5
2FB
330
1F
100
AcDbEntity
  8
0
  6
Continuous
 62
     7
370
    25
100
AcDbLine
 10
218.6211528116
 20
-31.1701484251
 30
0.0
 11
220.3746373988
 21
-34.7653246103
 31
0.0
  0
LINE
  5
2FC
330
1F
100
AcDbEntity
  8
0
  6
Continuous
 62
     7
370
    25
100
AcDbLine
 10
220.3746373988
 20
-34.7653246103
 30
0.0
 11
225.3176319457
 21
-32.3544650848
 31
0.0
  0
LINE
  5
2FD
330
1F
100
AcDbEntity
  8
0
  6
Continuous
 62
     7
370
    25
100
AcDbLine
 10
183.0985431853
 20
-67.4768004534
 30
0.0
 11
183.0985431853
 21
-67.4337177827
 31
0.0
  0
LINE
  5
2FE
330
1F
100
AcDbEntity
  8
0
  6
Continuous
 62
     7
370
    25
100
AcDbLine
 10
173.0985431853
 20
-67.4768004534
 30
0.0
 11
183.0985431853
 21
-67.4768004534
 31
0.0
  0
LINE
  5
2FF
330
1F
100
AcDbEntity
  8
0
  6
Continuous
 62
     7
370
    25
100
AcDbLine
 10
173.0985431853
 20
-71.4768004534
 30
0.0
 11
173.0985431853
 21
-67.4768004534
 31
0.0
  0
LINE
  5
300
330
1F
100
AcDbEntity
  8
0
  6
Continuous
 62
     7
370
    25
100
AcDbLine
 10
183.0985431853
 20
-71.4768004534
 30
0.0
 11
173.0985431853
 21
-71.4768004534
 31
0.0
  0
LINE
  5
301
330
1F
100
AcDbEntity
  8
0
  6
Continuous
 62
     7
370
    25
100
AcDbLine
 10
183.0985431853
 20
-89.3126918027
 30
0.0
 11
183.0985431853
 21
-71.4768004534
 31
0.0
  0
LINE
  5
302
330
1F
100
AcDbEntity
  8
0
  6
Continuous
 62
     7
370
    25
100
AcDbLine
 10
167.9975226709
 20
-94.3126918027
 30
0.0
 11
178.0985431853
 21
-94.3126918027
 31
0.0
  0
LINE
  5
303
330
1F
100
AcDbEntity
  8
0
  6
Continuous
 62
     7
370
    25
100
AcDbLine
 10
173.0985431855
 20
-90.3126918027
 30
0.0
 11
163.0985431853
 21
-90.3126918027
 31
0.0
  0
LINE
  5
304
330
1F
100
AcDbEntity
  8
0
  6
Continuous
 62
     7
370
    25
100
AcDbLine
 10
173.0985431855
 20
-86.3126918027
 30
0.0
 11
173.0985431855
 21
-90.3126918027
 31
0.0
  0
LINE
  5
305
330
1F
100
AcDbEntity
  8
0
  6
Continuous
 62
     7
370
    25
100
AcDbLine
 10
163.0985431855
 20
-86.3126918027
 30
0.0
 11
173.0985431855
 21
-86.3126918027
 31
0.0
  0
LINE
  5
306
330
1F
100
AcDbEntity
  8
0
  6
Continuous
 62
     7
370
    25
100
AcDbLine
 10
163.0985431855
 20
-80.3126918027
 30
0.0
 11
163.0985431855
 21
-86.3126918027
 31
0.0
  0
LINE
  5
307
330
1F
100
AcDbEntity
  8
0
  6
Continuous
 62
     7
370
    25
100
AcDbLine
 10
173.0985431855
 20
-80.3126918027
 30
0.0
 11
163.0985431855
 21
-80.3126918027
 31
0.0
  0
LINE
  5
308
330
1F
100
AcDbEntity
  8
0
  6
Continuous
 62
     7
370
    25
100
AcDbLine
 10
173.0985431855
 20
-76.3126918027
 30
0.0
 11
173.0985431855
 21
-80.3126918027
 31
0.0
  0
LINE
  5
309
330
1F
100
AcDbEntity
  8
0
  6
Continuous
 62
     7
370
    25
100
AcDbLine
 10
163.0985431855
 20
-76.3126918027
 30
0.0
 11
173.0985431855
 21
-76.3126918027
 31
0.0
  0
LINE
  5
30A
330
1F
100
AcDbEntity
  8
0
  6
Continuous
 62
     7
370
    25
100
AcDbLine
 10
163.0985431855
 20
-53.903206493
 30
0.0
 11
163.0985431855
 21
-76.3126918027
 31
0.0
  0
LINE
  5
30B
330
1F
100
AcDbEntity
  8
0
  6
Continuous
 62
     7
370
    25
100
AcDbLine
 10
163.0985431854
 20
157.1467238024
 30
0.0
 11
163.0985431854
 21
153.1467238024
 31
0.0
  0
LINE
  5
30C
330
1F
100
AcDbEntity
  8
0
  6
Continuous
 62
     7
370
    25
100
AcDbLine
 10
163.0985431854
 20
157.1467238024
 30
0.0
 11
173.0985431854
 21
157.1467238024
 31
0.0
  0
LINE
  5
30D
330
1F
100
AcDbEntity
  8
0
  6
Continuous
 62
     7
370
    25
100
AcDbLine
 10
173.0985431854
 20
161.1467238024
 30
0.0
 11
173.0985431854
 21
157.1467238024
 31
0.0
  0
LINE
  5
30E
330
1F
100
AcDbEntity
  8
0
  6
Continuous
 62
     7
370
    25
100
AcDbLine
 10
173.0985431854
 20
161.1467238024
 30
0.0
 11
163.0985431854
 21
161.1467238024
 31
0.0
  0
LINE
  5
30F
330
1F
100
AcDbEntity
  8
0
  6
Continuous
 62
     7
370
    25
100
AcDbLine
 10
163.0985431854
 20
178.1467238024
 30
0.0
 11
163.0985431854
 21
161.1467238024
 31
0.0
  0
LINE
  5
310
330
1F
100
AcDbEntity
  8
0
  6
Continuous
 62
     7
370
    25
100
AcDbLine
 10
193.1403839882
 20
165.2942660921
 30
0.0
 11
193.1403839882
 21
154.0975025731
 31
0.0
  0
LINE
  5
311
330
1F
100
AcDbEntity
  8
0
  6
Continuous
 62
     7
370
    25
100
AcDbLine
 10
193.1403839882
 20
154.0975025731
 30
0.0
 11
197.1403839882
 21
154.0975025731
 31
0.0
  0
LINE
  5
312
330
1F
100
AcDbEntity
  8
0
  6
Continuous
 62
     7
370
    25
100
AcDbLine
 10
197.1403839882
 20
154.0975025731
 30
0.0
 11
197.1403839882
 21
162.8512331812
 31
0.0
  0
LINE
  5
313
330
1F
100
AcDbEntity
  8
0
  6
Continuous
 62
     7
370
    25
100
AcDbLine
 10
233.6112199033
 20
128.0957069923
 30
0.0
 11
230.4026172581
 21
116.9059797833
 31
0.0
  0
LINE
  5
314
330
1F
100
AcDbEntity
  8
0
  6
Continuous
 62
     7
370
    25
100
AcDbLine
 10
230.4026172581
 20
116.9059797833
 30
0.0
 11
234.2476640419
 21
115.80343036
 31
0.0
  0
LINE
  5
315
330
1F
100
AcDbEntity
  8
0
  6
Continuous
 62
     7
370
    25
100
AcDbLine
 10
234.2476640419
 20
115.80343036
 30
0.0
 11
236.532988603
 21
123.7733042434
 31
0.0
  0
LINE
  5
316
330
1F
100
AcDbEntity
  8
0
  6
Continuous
 62
     7
370
    25
100
AcDbLine
 10
254.9919020781
 20
78.0085848649
 30
0.0
 11
248.5308766384
 21
67.6687827608
 31
0.0
  0
LINE
  5
317
330
1F
100
AcDbEntity
  8
0
  6
Continuous
 62
     7
370
    25
100
AcDbLine
 10
248.5308766384
 20
67.6687827608
 30
0.0
 11
251.923069023
 21
65.5491057039
 31
0.0
  0
LINE
  5
318
330
1F
100
AcDbEntity
  8
0
  6
Continuous
 62
     7
370
    25
100
AcDbLine
 10
251.923069023
 20
65.5491057039
 30
0.0
 11
256.0050443991
 21
72.0816318448
 31
0.0
  0
LINE
  5
319
330
1F
100
AcDbEntity
  8
0
  6
Continuous
 62
     7
370
    25
100
AcDbLine
 10
254.0539782323
 20
23.8791386669
 30
0.0
 11
244.4359426041
 21
15.2190204891
 31
0.0
  0
LINE
  5
31A
330
1F
100
AcDbEntity
  8
0
  6
Continuous
 62
     7
370
    25
100
AcDbLine
 10
244.4359426041
 20
15.2190204891
 30
0.0
 11
247.1124650296
 21
12.2464411872
 31
0.0
  0
LINE
  5
31B
330
1F
100
AcDbEntity
  8
0
  6
Continuous
 62
     7
370
    25
100
AcDbLine
 10
247.1124650296
 20
12.2464411872
 30
0.0
 11
252.2201439062
 21
16.8454159047
 31
0.0
  0
LINE
  5
31C
330
1F
100
AcDbEntity
  8
0
  6
Continuous
 62
     7
370
    25
100
AcDbLine
 10
89.7354146713
 20
151.649517098
 30
0.0
 11
89.7354146713
 21
155.649517098
 31
0.0
  0
LINE
  5
31D
330
1F
100
AcDbEntity
  8
0
  6
Continuous
 62
     7
370
    25
100
AcDbLine
 10
89.7354146713
 20
155.649517098
 30
0.0
 11
99.7354146713
 21
155.649517098
 31
0.0
  0
LINE
  5
31E
330
1F
100
AcDbEntity
  8
0
  6
Continuous
 62
     7
370
    25
100
AcDbLine
 10
99.7354146713
 20
155.649517098
 30
0.0
 11
99.7354146713
 21
159.649517098
 31
0.0
  0
LINE
  5
31F
330
1F
100
AcDbEntity
  8
0
  6
Continuous
 62
     7
370
    25
100
AcDbLine
 10
99.7354146713
 20
159.649517098
 30
0.0
 11
89.7354146713
 21
159.649517098
 31
0.0
  0
LINE
  5
320
330
1F
100
AcDbEntity
  8
0
  6
Continuous
 62
     7
370
    25
100
AcDbLine
 10
89.7354146713
 20
159.649517098
 30
0.0
 11
89.7354146713
 21
176.649517098
 31
0.0
  0
LINE
  5
321
330
1F
100
AcDbEntity
  8
0
  6
Continuous
 62
     7
370
    25
100
AcDbLine
 10
142.7266889094
 20
146.6894609718
 30
0.0
 11
139.3415777119
 21
136.2711599678
 31
0.0
  0
LINE
  5
322
330
1F
100
AcDbEntity
  8
0
  6
Continuous
 62
     7
370
    25
100
AcDbLine
 10
139.3415777119
 20
136.2711599678
 30
0.0
 11
143.145803777
 21
135.0350919903
 31
0.0
  0
LINE
  5
323
330
1F
100
AcDbEntity
  8
0
  6
Continuous
 62
     7
370
    25
100
AcDbLine
 10
143.145803777
 20
135.0350919903
 30
0.0
 11
145.927934976
 21
143.5976113797
 31
0.0
  0
LINE
  5
324
330
1F
100
AcDbEntity
  8
0
  6
Continuous
 62
     7
370
    25
100
AcDbLine
 10
174.5033047227
 20
100.4938270821
 30
0.0
 11
168.1437237934
 21
91.0653606203
 31
0.0
  0
LINE
  5
325
330
1F
100
AcDbEntity
  8
0
  6
Continuous
 62
     7
370
    25
100
AcDbLine
 10
168.1437237934
 20
91.0653606203
 30
0.0
 11
171.4598740836
 21
88.8285890064
 31
0.0
  0
LINE
  5
326
330
1F
100
AcDbEntity
  8
0
  6
Continuous
 62
     7
370
    25
100
AcDbLine
 10
171.4598740836
 20
88.8285890064
 30
0.0
 11
176.2528387787
 21
95.9344513868
 31
0.0
  0
LINE
  5
327
330
1F
100
AcDbEntity
  8
0
  6
Continuous
 62
     7
370
    25
100
AcDbLine
 10
183.8745169919
 20
45.3286944646
 30
0.0
 11
174.7655794118
 21
37.6853883006
 31
0.0
  0
LINE
  5
328
330
1F
100
AcDbEntity
  8
0
  6
Continuous
 62
     7
370
    25
100
AcDbLine
 10
174.7655794118
 20
37.6853883006
 30
0.0
 11
177.3367298505
 21
34.6212105281
 31
0.0
  0
LINE
  5
329
330
1F
100
AcDbEntity
  8
0
  6
Continuous
 62
     7
370
    25
100
AcDbLine
 10
177.3367298505
 20
34.6212105281
 30
0.0
 11
183.4853160743
 21
39.7804869609
 31
0.0
  0
LINE
  5
32A
330
1F
100
AcDbEntity
  8
0
  6
Continuous
 62
     7
370
    25
100
AcDbLine
 10
169.2776016402
 20
-8.4969054
 30
0.0
 11
157.7799065941
 21
-13.6160090495
 31
0.0
  0
LINE
  5
32B
330
1F
100
AcDbEntity
  8
0
  6
Continuous
 62
     7
370
    25
100
AcDbLine
 10
157.7799065941
 20
-13.6160090495
 30
0.0
 11
159.4068531664
 21
-17.2701908801
 31
0.0
  0
LINE
  5
32C
330
1F
100
AcDbEntity
  8
0
  6
Continuous
 62
     7
370
    25
100
AcDbLine
 10
159.4068531664
 20
-17.2701908801
 30
0.0
 11
166.0508992562
 21
-14.3120709744
 31
0.0
  0
LINE
  5
32D
330
1F
100
AcDbEntity
  8
0
  6
Continuous
 62
     7
370
    25
100
AcDbLine
 10
133.7480180087
 20
-51.0381753514
 30
0.0
 11
120.2593284372
 21
-52.9338870429
 31
0.0
  0
LINE
  5
32E
330
1F
100
AcDbEntity
  8
0
  6
Continuous
 62
     7
370
    25
100
AcDbLine
 10
120.2593284372
 20
-52.9338870429
 30
0.0
 11
120.8160208411
 21
-56.8949593178
 31
0.0
  0
LINE
  5
32F
330
1F
100
AcDbEntity
  8
0
  6
Continuous
 62
     7
370
    25
100
AcDbLine
 10
120.8160208411
 20
-56.8949593178
 30
0.0
 11
126.8367316518
 21
-56.048803595
 31
0.0
  0
LINE
  5
330
330
1F
100
AcDbEntity
  8
0
  6
Continuous
 62
     7
370
    25
100
AcDbLine
 10
109.7354146713
 20
-68.9309244871
 30
0.0
 11
109.7354146713
 21
-90.8098985071
 31
0.0
  0
LINE
  5
331
330
1F
100
AcDbEntity
  8
0
  6
Continuous
 62
     7
370
    25
100
AcDbLine
 10
104.7354146713
 20
-95.8098985071
 30
0.0
 11
94.6343941568
 21
-95.8098985071
 31
0.0
  0
LINE
  5
332
330
1F
100
AcDbEntity
  8
0
  6
Continuous
 62
     7
370
    25
100
AcDbLine
 10
89.7354146713
 20
-91.8098985071
 30
0.0
 11
99.7354146715
 21
-91.8098985071
 31
0.0
  0
LINE
  5
333
330
1F
100
AcDbEntity
  8
0
  6
Continuous
 62
     7
370
    25
100
AcDbLine
 10
99.7354146715
 20
-91.8098985071
 30
0.0
 11
99.7354146715
 21
-87.8098985071
 31
0.0
  0
LINE
  5
334
330
1F
100
AcDbEntity
  8
0
  6
Continuous
 62
     7
370
    25
100
AcDbLine
 10
99.7354146715
 20
-87.8098985071
 30
0.0
 11
89.7354146715
 21
-87.8098985071
 31
0.0
  0
LINE
  5
335
330
1F
100
AcDbEntity
  8
0
  6
Continuous
 62
     7
370
    25
100
AcDbLine
 10
89.7354146715
 20
-87.8098985071
 30
0.0
 11
89.7354146715
 21
-81.8098985071
 31
0.0
  0
LINE
  5
336
330
1F
100
AcDbEntity
  8
0
  6
Continuous
 62
     7
370
    25
100
AcDbLine
 10
89.7354146715
 20
-81.8098985071
 30
0.0
 11
99.7354146715
 21
-81.8098985071
 31
0.0
  0
LINE
  5
337
330
1F
100
AcDbEntity
  8
0
  6
Continuous
 62
     7
370
    25
100
AcDbLine
 10
99.7354146715
 20
-81.8098985071
 30
0.0
 11
99.7354146715
 21
-77.8098985071
 31
0.0
  0
LINE
  5
338
330
1F
100
AcDbEntity
  8
0
  6
Continuous
 62
     7
370
    25
100
AcDbLine
 10
99.7354146715
 20
-77.8098985071
 30
0.0
 11
89.7354146715
 21
-77.8098985071
 31
0.0
  0
LINE
  5
339
330
1F
100
AcDbEntity
  8
0
  6
Continuous
 62
     7
370
    25
100
AcDbLine
 10
89.7354146715
 20
-77.8098985071
 30
0.0
 11
89.7354146715
 21
-55.4004131974
 31
0.0
  0
LINE
  5
33A
330
1F
100
AcDbEntity
  8
0
  6
Continuous
 62
     7
370
    25
100
AcDbLine
 10
48.6983714618
 20
-9.5120342778
 30
0.0
 11
44.8346681566
 21
-8.4767580974
 31
0.0
  0
LINE
  5
33B
330
1F
100
AcDbEntity
  8
0
  6
Continuous
 62
     7
370
    25
100
AcDbLine
 10
44.8346681566
 20
-8.4767580974
 30
0.0
 11
42.2533807742
 21
-18.1102537574
 31
0.0
  0
LINE
  5
33C
330
1F
100
AcDbEntity
  8
0
  6
Continuous
 62
     7
370
    25
100
AcDbLine
 10
27.8351442529
 20
-12.1380246448
 30
0.0
 11
32.8218085484
 21
-3.5008687248
 31
0.0
  0
LINE
  5
33D
330
1F
100
AcDbEntity
  8
0
  6
Continuous
 62
     7
370
    25
100
AcDbLine
 10
32.8218085484
 20
-3.5008687248
 30
0.0
 11
29.3577069333
 21
-1.5008687248
 31
0.0
  0
LINE
  5
33E
330
1F
100
AcDbEntity
  8
0
  6
Continuous
 62
     7
370
    25
100
AcDbLine
 10
29.3577069333
 20
-1.5008687248
 30
0.0
 11
24.3710426378
 21
-10.1380246448
 31
0.0
  0
LINE
  5
33F
330
1F
100
AcDbEntity
  8
0
  6
Continuous
 62
     7
370
    25
100
AcDbLine
 10
11.9898222484
 20
-0.6375800959
 30
0.0
 11
19.0420305261
 21
6.4146281817
 31
0.0
  0
LINE
  5
340
330
1F
100
AcDbEntity
  8
0
  6
Continuous
 62
     7
370
    25
100
AcDbLine
 10
19.0420305261
 20
6.4146281817
 30
0.0
 11
16.2136034013
 21
9.2430553065
 31
0.0
  0
LINE
  5
341
330
1F
100
AcDbEntity
  8
0
  6
Continuous
 62
     7
370
    25
100
AcDbLine
 10
16.2136034013
 20
9.2430553065
 30
0.0
 11
9.1613951237
 21
2.1908470288
 31
0.0
  0
LINE
  5
342
330
1F
100
AcDbEntity
  8
0
  6
Continuous
 62
     7
370
    25
100
AcDbLine
 10
-0.3390494252
 20
14.5720674182
 30
0.0
 11
8.2981064949
 21
19.5587317137
 31
0.0
  0
LINE
  5
343
330
1F
100
AcDbEntity
  8
0
  6
Continuous
 62
     7
370
    25
100
AcDbLine
 10
8.2981064949
 20
19.5587317137
 30
0.0
 11
6.2981064949
 21
23.0228333288
 31
0.0
  0
LINE
  5
344
330
1F
100
AcDbEntity
  8
0
  6
Continuous
 62
     7
370
    25
100
AcDbLine
 10
6.2981064949
 20
23.0228333288
 30
0.0
 11
-2.3390494252
 21
18.0361690333
 31
0.0
  0
LINE
  5
345
330
1F
100
AcDbEntity
  8
0
  6
Continuous
 62
     7
370
    25
100
AcDbLine
 10
-8.3112785378
 20
32.4544055546
 30
0.0
 11
1.3222171223
 21
35.035692937
 31
0.0
  0
LINE
  5
346
330
1F
100
AcDbEntity
  8
0
  6
Continuous
 62
     7
370
    25
100
AcDbLine
 10
1.3222171223
 20
35.035692937
 30
0.0
 11
0.2869409418
 21
38.8993962421
 31
0.0
  0
LINE
  5
347
330
1F
100
AcDbEntity
  8
0
  6
Continuous
 62
     7
370
    25
100
AcDbLine
 10
0.2869409418
 20
38.8993962421
 30
0.0
 11
-9.3465547182
 21
36.3181088597
 31
0.0
  0
LINE
  5
348
330
1F
100
AcDbEntity
  8
0
  6
Continuous
 62
     7
370
    25
100
AcDbLine
 10
-11.3835708501
 20
51.7907825212
 30
0.0
 11
-1.4102422592
 21
51.7907825212
 31
0.0
  0
LINE
  5
349
330
1F
100
AcDbEntity
  8
0
  6
Continuous
 62
     7
370
    25
100
AcDbLine
 10
-1.4102422592
 20
51.7907825212
 30
0.0
 11
-1.4102422592
 21
55.7907825212
 31
0.0
  0
LINE
  5
34A
330
1F
100
AcDbEntity
  8
0
  6
Continuous
 62
     7
370
    25
100
AcDbLine
 10
-1.4102422592
 20
55.7907825212
 30
0.0
 11
-11.3835708501
 21
55.7907825212
 31
0.0
  0
LINE
  5
34B
330
1F
100
AcDbEntity
  8
0
  6
Continuous
 62
     7
370
    25
100
AcDbLine
 10
-9.3465547182
 20
71.2634561827
 30
0.0
 11
0.2869409418
 21
68.6821688003
 31
0.0
  0
LINE
  5
34C
330
1F
100
AcDbEntity
  8
0
  6
Continuous
 62
     7
370
    25
100
AcDbLine
 10
0.2869409418
 20
68.6821688003
 30
0.0
 11
1.3222171223
 21
72.5458721055
 31
0.0
  0
LINE
  5
34D
330
1F
100
AcDbEntity
  8
0
  6
Continuous
 62
     7
370
    25
100
AcDbLine
 10
1.3222171223
 20
72.5458721055
 30
0.0
 11
-8.3112785378
 21
75.1271594878
 31
0.0
  0
LINE
  5
34E
330
1F
100
AcDbEntity
  8
0
  6
Continuous
 62
     7
370
    25
100
AcDbLine
 10
-2.3390494252
 20
89.5453960091
 30
0.0
 11
6.2981064949
 21
84.5587317137
 31
0.0
  0
LINE
  5
34F
330
1F
100
AcDbEntity
  8
0
  6
Continuous
 62
     7
370
    25
100
AcDbLine
 10
6.2981064949
 20
84.5587317137
 30
0.0
 11
8.2981064949
 21
88.0228333288
 31
0.0
  0
LINE
  5
350
330
1F
100
AcDbEntity
  8
0
  6
Continuous
 62
     7
370
    25
100
AcDbLine
 10
8.2981064949
 20
88.0228333288
 30
0.0
 11
-0.3390494252
 21
93.0094976242
 31
0.0
  0
LINE
  5
351
330
1F
100
AcDbEntity
  8
0
  6
Continuous
 62
     7
370
    25
100
AcDbLine
 10
9.1613951237
 20
105.3907180136
 30
0.0
 11
16.2136034013
 21
98.338509736
 31
0.0
  0
LINE
  5
352
330
1F
100
AcDbEntity
  8
0
  6
Continuous
 62
     7
370
    25
100
AcDbLine
 10
16.2136034013
 20
98.338509736
 30
0.0
 11
19.0420305261
 21
101.1669368607
 31
0.0
  0
LINE
  5
353
330
1F
100
AcDbEntity
  8
0
  6
Continuous
 62
     7
370
    25
100
AcDbLine
 10
19.0420305261
 20
101.1669368607
 30
0.0
 11
11.9898222484
 21
108.2191451383
 31
0.0
  0
LINE
  5
354
330
1F
100
AcDbEntity
  8
0
  6
Continuous
 62
     7
370
    25
100
AcDbLine
 10
29.3577069333
 20
109.0824337672
 30
0.0
 11
32.8218085484
 21
111.0824337672
 31
0.0
  0
LINE
  5
355
330
1F
100
AcDbEntity
  8
0
  6
Continuous
 62
     7
370
    25
100
AcDbLine
 10
32.8218085484
 20
111.0824337672
 30
0.0
 11
27.8351442529
 21
119.7195896872
 31
0.0
  0
LINE
  5
356
330
1F
100
AcDbEntity
  8
0
  6
Continuous
 62
     7
370
    25
100
AcDbLine
 10
42.2533807742
 20
125.6918187998
 30
0.0
 11
44.8346681566
 21
116.0583231398
 31
0.0
  0
LINE
  5
357
330
1F
100
AcDbEntity
  8
0
  6
Continuous
 62
     7
370
    25
100
AcDbLine
 10
44.8346681566
 20
116.0583231398
 30
0.0
 11
48.6983714618
 21
117.0935993202
 31
0.0
  0
LINE
  5
358
330
1F
100
AcDbEntity
  8
0
  6
Continuous
 62
     7
370
    25
100
AcDbLine
 10
61.5897577408
 20
128.7641111121
 30
0.0
 11
61.5897577408
 21
118.7907825212
 31
0.0
  0
LINE
  5
359
330
1F
100
AcDbEntity
  8
0
  6
Continuous
 62
     7
370
    25
100
AcDbLine
 10
61.5897577408
 20
118.7907825212
 30
0.0
 11
65.5897577408
 21
118.7907825212
 31
0.0
  0
LINE
  5
35A
330
1F
100
AcDbEntity
  8
0
  6
Continuous
 62
     7
370
    25
100
AcDbLine
 10
65.5897577408
 20
118.7907825212
 30
0.0
 11
65.5897577408
 21
128.7641111121
 31
0.0
  0
LINE
  5
35B
330
1F
100
AcDbEntity
  8
0
  6
Continuous
 62
     7
370
    25
100
AcDbLine
 10
81.0624314023
 20
126.7270949802
 30
0.0
 11
78.4811440199
 21
117.0935993202
 31
0.0
  0
LINE
  5
35C
330
1F
100
AcDbEntity
  8
0
  6
Continuous
 62
     7
370
    25
100
AcDbLine
 10
78.4811440199
 20
117.0935993202
 30
0.0
 11
82.3448473251
 21
116.0583231398
 31
0.0
  0
LINE
  5
35D
330
1F
100
AcDbEntity
  8
0
  6
Continuous
 62
     7
370
    25
100
AcDbLine
 10
99.3443712287
 20
119.7195896872
 30
0.0
 11
94.3577069333
 21
111.0824337672
 31
0.0
  0
LINE
  5
35E
330
1F
100
AcDbEntity
  8
0
  6
Continuous
 62
     7
370
    25
100
AcDbLine
 10
94.3577069333
 20
111.0824337672
 30
0.0
 11
97.8218085484
 21
109.0824337672
 31
0.0
  0
LINE
  5
35F
330
1F
100
AcDbEntity
  8
0
  6
Continuous
 62
     7
370
    25
100
AcDbLine
 10
97.8218085484
 20
109.0824337672
 30
0.0
 11
102.8084728438
 21
117.7195896872
 31
0.0
  0
LINE
  5
360
330
1F
100
AcDbEntity
  8
0
  6
Continuous
 62
     7
370
    25
100
AcDbLine
 10
115.1896932332
 20
108.2191451383
 30
0.0
 11
108.1374849556
 21
101.1669368607
 31
0.0
  0
LINE
  5
361
330
1F
100
AcDbEntity
  8
0
  6
Continuous
 62
     7
370
    25
100
AcDbLine
 10
108.1374849556
 20
101.1669368607
 30
0.0
 11
110.9659120803
 21
98.338509736
 31
0.0
  0
LINE
  5
362
330
1F
100
AcDbEntity
  8
0
  6
Continuous
 62
     7
370
    25
100
AcDbLine
 10
110.9659120803
 20
98.338509736
 30
0.0
 11
118.0181203579
 21
105.3907180136
 31
0.0
  0
LINE
  5
363
330
1F
100
AcDbEntity
  8
0
  6
Continuous
 62
     7
370
    25
100
AcDbLine
 10
127.5185649068
 20
93.0094976242
 30
0.0
 11
118.8814089868
 21
88.0228333288
 31
0.0
  0
LINE
  5
364
330
1F
100
AcDbEntity
  8
0
  6
Continuous
 62
     7
370
    25
100
AcDbLine
 10
118.8814089868
 20
88.0228333288
 30
0.0
 11
120.8814089868
 21
84.5587317137
 31
0.0
  0
LINE
  5
365
330
1F
100
AcDbEntity
  8
0
  6
Continuous
 62
     7
370
    25
100
AcDbLine
 10
120.8814089868
 20
84.5587317137
 30
0.0
 11
129.5185649068
 21
89.5453960091
 31
0.0
  0
LINE
  5
366
330
1F
100
AcDbEntity
  8
0
  6
Continuous
 62
     7
370
    25
100
AcDbLine
 10
135.4907940194
 20
75.1271594878
 30
0.0
 11
125.8572983594
 21
72.5458721055
 31
0.0
  0
LINE
  5
367
330
1F
100
AcDbEntity
  8
0
  6
Continuous
 62
     7
370
    25
100
AcDbLine
 10
125.8572983594
 20
72.5458721055
 30
0.0
 11
126.8925745398
 21
68.6821688003
 31
0.0
  0
LINE
  5
368
330
1F
100
AcDbEntity
  8
0
  6
Continuous
 62
     7
370
    25
100
AcDbLine
 10
126.8925745398
 20
68.6821688003
 30
0.0
 11
136.5260701998
 21
71.2634561827
 31
0.0
  0
LINE
  5
369
330
1F
100
AcDbEntity
  8
0
  6
Continuous
 62
     7
370
    25
100
AcDbLine
 10
138.5630863317
 20
55.7907825212
 30
0.0
 11
128.5897577408
 21
55.7907825212
 31
0.0
  0
LINE
  5
36A
330
1F
100
AcDbEntity
  8
0
  6
Continuous
 62
     7
370
    25
100
AcDbLine
 10
128.5897577408
 20
55.7907825212
 30
0.0
 11
128.5897577408
 21
51.7907825212
 31
0.0
  0
LINE
  5
36B
330
1F
100
AcDbEntity
  8
0
  6
Continuous
 62
     7
370
    25
100
AcDbLine
 10
128.5897577408
 20
51.7907825212
 30
0.0
 11
138.5630863317
 21
51.7907825212
 31
0.0
  0
LINE
  5
36C
330
1F
100
AcDbEntity
  8
0
  6
Continuous
 62
     7
370
    25
100
AcDbLine
 10
136.5260701998
 20
36.3181088597
 30
0.0
 11
126.8925745398
 21
38.8993962421
 31
0.0
  0
LINE
  5
36D
330
1F
100
AcDbEntity
  8
0
  6
Continuous
 62
     7
370
    25
100
AcDbLine
 10
126.8925745398
 20
38.8993962421
 30
0.0
 11
125.8572983594
 21
35.035692937
 31
0.0
  0
LINE
  5
36E
330
1F
100
AcDbEntity
  8
0
  6
Continuous
 62
     7
370
    25
100
AcDbLine
 10
125.8572983594
 20
35.035692937
 30
0.0
 11
135.4907940194
 21
32.4544055546
 31
0.0
  0
LINE
  5
36F
330
1F
100
AcDbEntity
  8
0
  6
Continuous
 62
     7
370
    25
100
AcDbLine
 10
129.5185649068
 20
18.0361690333
 30
0.0
 11
120.8814089868
 21
23.0228333288
 31
0.0
  0
LINE
  5
370
330
1F
100
AcDbEntity
  8
0
  6
Continuous
 62
     7
370
    25
100
AcDbLine
 10
120.8814089868
 20
23.0228333288
 30
0.0
 11
118.8814089868
 21
19.5587317137
 31
0.0
  0
LINE
  5
371
330
1F
100
AcDbEntity
  8
0
  6
Continuous
 62
     7
370
    25
100
AcDbLine
 10
118.8814089868
 20
19.5587317137
 30
0.0
 11
127.5185649068
 21
14.5720674182
 31
0.0
  0
LINE
  5
372
330
1F
100
AcDbEntity
  8
0
  6
Continuous
 62
     7
370
    25
100
AcDbLine
 10
118.0181203579
 20
2.1908470288
 30
0.0
 11
110.9659120803
 21
9.2430553065
 31
0.0
  0
LINE
  5
373
330
1F
100
AcDbEntity
  8
0
  6
Continuous
 62
     7
370
    25
100
AcDbLine
 10
110.9659120803
 20
9.2430553065
 30
0.0
 11
108.1374849556
 21
6.4146281817
 31
0.0
  0
LINE
  5
374
330
1F
100
AcDbEntity
  8
0
  6
Continuous
 62
     7
370
    25
100
AcDbLine
 10
108.1374849556
 20
6.4146281817
 30
0.0
 11
115.1896932332
 21
-0.6375800959
 31
0.0
  0
LINE
  5
375
330
1F
100
AcDbEntity
  8
0
  6
Continuous
 62
     7
370
    25
100
AcDbLine
 10
102.8084728438
 20
-10.1380246448
 30
0.0
 11
97.8218085484
 21
-1.5008687248
 31
0.0
  0
LINE
  5
376
330
1F
100
AcDbEntity
  8
0
  6
Continuous
 62
     7
370
    25
100
AcDbLine
 10
97.8218085484
 20
-1.5008687248
 30
0.0
 11
94.3577069333
 21
-3.5008687248
 31
0.0
  0
LINE
  5
377
330
1F
100
AcDbEntity
  8
0
  6
Continuous
 62
     7
370
    25
100
AcDbLine
 10
94.3577069333
 20
-3.5008687248
 30
0.0
 11
99.3443712287
 21
-12.1380246448
 31
0.0
  0
LINE
  5
378
330
1F
100
AcDbEntity
  8
0
  6
Continuous
 62
     7
370
    25
100
AcDbLine
 10
84.9261347074
 20
-18.1102537574
 30
0.0
 11
82.3448473251
 21
-8.4767580974
 31
0.0
  0
LINE
  5
379
330
1F
100
AcDbEntity
  8
0
  6
Continuous
 62
     7
370
    25
100
AcDbLine
 10
82.3448473251
 20
-8.4767580974
 30
0.0
 11
78.4811440199
 21
-9.5120342778
 31
0.0
  0
LINE
  5
37A
330
1F
100
AcDbEntity
  8
0
  6
Continuous
 62
     7
370
    25
100
AcDbLine
 10
78.4811440199
 20
-9.5120342778
 30
0.0
 11
81.0624314023
 21
-19.1455299378
 31
0.0
  0
LINE
  5
37B
330
1F
100
AcDbEntity
  8
0
  6
Continuous
 62
     7
370
    25
100
AcDbLine
 10
65.5897577408
 20
-21.1825460697
 30
0.0
 11
65.5897577408
 21
-11.2092174788
 31
0.0
  0
LINE
  5
37C
330
1F
100
AcDbEntity
  8
0
  6
Continuous
 62
     7
370
    25
100
AcDbLine
 10
65.5897577408
 20
-11.2092174788
 30
0.0
 11
61.5897577408
 21
-11.2092174788
 31
0.0
  0
LINE
  5
37D
330
1F
100
AcDbEntity
  8
0
  6
Continuous
 62
     7
370
    25
100
AcDbLine
 10
61.5897577408
 20
-11.2092174788
 30
0.0
 11
61.5897577408
 21
-21.1825460697
 31
0.0
  0
LINE
  5
37E
330
1F
100
AcDbEntity
  8
0
  6
Continuous
 62
     7
370
    25
100
AcDbLine
 10
46.1170840793
 20
-19.1455299378
 30
0.0
 11
48.6983714618
 21
-9.5120342778
 31
0.0
  0
LINE
  5
37F
330
1F
100
AcDbEntity
  8
0
  6
Continuous
 62
     7
370
    25
100
AcDbLine
 10
73.0867759196
 20
107.6510490591
 30
0.0
 11
67.9309621825
 21
78.4109763465
 31
0.0
  0
LINE
  5
380
330
1F
100
AcDbEntity
  8
0
  6
Continuous
 62
     7
370
    25
100
AcDbLine
 10
87.0820732605
 20
45.2402789381
 30
0.0
 11
114.9826259066
 21
35.0853082553
 31
0.0
  0
LINE
  5
381
330
1F
100
AcDbEntity
  8
0
  6
Continuous
 62
     7
370
    25
100
AcDbLine
 10
82.7408688188
 20
37.7210922791
 30
0.0
 11
105.4856077278
 21
18.6359902493
 31
0.0
  0
LINE
  5
382
330
1F
100
AcDbEntity
  8
0
  6
Continuous
 62
     7
370
    25
100
AcDbLine
 10
21.6939077538
 20
18.6359902493
 30
0.0
 11
44.4386466628
 21
37.7210922791
 31
0.0
  0
LINE
  5
383
330
1F
100
AcDbEntity
  8
0
  6
Continuous
 62
     7
370
    25
100
AcDbLine
 10
40.0974422212
 20
45.2402789381
 30
0.0
 11
12.1968895751
 21
35.0853082553
 31
0.0
  0
LINE
  5
384
330
1F
100
AcDbEntity
  8
0
  6
Continuous
 62
     7
370
    25
100
AcDbLine
 10
54.092739562
 20
107.6510490591
 30
0.0
 11
59.2485532991
 21
78.4109763465
 31
0.0
  0
LINE
  5
385
330
1F
100
AcDbEntity
  8
0
  6
Continuous
 62
     7
370
    25
100
AcDbLine
 10
82.3448473251
 20
116.0583231398
 30
0.0
 11
84.9261347074
 21
125.6918187998
 31
0.0
  0
LINE
  5
386
330
1F
100
AcDbEntity
  8
0
  6
Continuous
 62
     7
370
    25
100
AcDbLine
 10
24.3710426378
 20
117.7195896872
 30
0.0
 11
29.3577069333
 21
109.0824337672
 31
0.0
  0
LINE
  5
387
330
1F
100
AcDbEntity
  8
0
  6
Continuous
 62
     7
370
    25
100
AcDbLine
 10
48.6983714618
 20
117.0935993202
 30
0.0
 11
46.1170840793
 21
126.7270949802
 31
0.0
  0
LINE
  5
388
330
1F
100
AcDbEntity
  8
0
  6
Continuous
 62
     7
370
    25
100
AcDbLine
 10
-96.2886656291
 20
109.960710083
 30
0.0
 11
-92.2886656291
 21
109.960710083
 31
0.0
  0
LINE
  5
389
330
1F
100
AcDbEntity
  8
0
  6
Continuous
 62
     7
370
    25
100
AcDbLine
 10
-92.2886656291
 20
109.960710083
 30
0.0
 11
-92.2886656291
 21
119.9340386739
 31
0.0
  0
LINE
  5
38A
330
1F
100
AcDbEntity
  8
0
  6
Continuous
 62
     7
370
    25
100
AcDbLine
 10
-76.8159919676
 20
117.897022542
 30
0.0
 11
-79.3972793501
 21
108.263526882
 31
0.0
  0
LINE
  5
38B
330
1F
100
AcDbEntity
  8
0
  6
Continuous
 62
     7
370
    25
100
AcDbLine
 10
-79.3972793501
 20
108.263526882
 30
0.0
 11
-75.5335760449
 21
107.2282507016
 31
0.0
  0
LINE
  5
38C
330
1F
100
AcDbEntity
  8
0
  6
Continuous
 62
     7
370
    25
100
AcDbLine
 10
-75.5335760449
 20
107.2282507016
 30
0.0
 11
-72.9522886625
 21
116.8617463616
 31
0.0
  0
LINE
  5
38D
330
1F
100
AcDbEntity
  8
0
  6
Continuous
 62
     7
370
    25
100
AcDbLine
 10
-58.5340521412
 20
110.889517249
 30
0.0
 11
-63.5207164367
 21
102.252361329
 31
0.0
  0
LINE
  5
38E
330
1F
100
AcDbEntity
  8
0
  6
Continuous
 62
     7
370
    25
100
AcDbLine
 10
-63.5207164367
 20
102.252361329
 30
0.0
 11
-60.0566148216
 21
100.252361329
 31
0.0
  0
LINE
  5
38F
330
1F
100
AcDbEntity
  8
0
  6
Continuous
 62
     7
370
    25
100
AcDbLine
 10
-60.0566148216
 20
100.252361329
 30
0.0
 11
-55.0699505261
 21
108.889517249
 31
0.0
  0
LINE
  5
390
330
1F
100
AcDbEntity
  8
0
  6
Continuous
 62
     7
370
    25
100
AcDbLine
 10
-42.6887301367
 20
99.3890727001
 30
0.0
 11
-49.7409384144
 21
92.3368644225
 31
0.0
  0
LINE
  5
391
330
1F
100
AcDbEntity
  8
0
  6
Continuous
 62
     7
370
    25
100
AcDbLine
 10
-49.7409384144
 20
92.3368644225
 30
0.0
 11
-46.9125112896
 21
89.5084372978
 31
0.0
  0
LINE
  5
392
330
1F
100
AcDbEntity
  8
0
  6
Continuous
 62
     7
370
    25
100
AcDbLine
 10
-46.9125112896
 20
89.5084372978
 30
0.0
 11
-39.860303012
 21
96.5606455754
 31
0.0
  0
LINE
  5
393
330
1F
100
AcDbEntity
  8
0
  6
Continuous
 62
     7
370
    25
100
AcDbLine
 10
-30.3598584631
 20
84.179425186
 30
0.0
 11
-38.9970143832
 21
79.1927608906
 31
0.0
  0
LINE
  5
394
330
1F
100
AcDbEntity
  8
0
  6
Continuous
 62
     7
370
    25
100
AcDbLine
 10
-38.9970143832
 20
79.1927608906
 30
0.0
 11
-36.9970143832
 21
75.7286592755
 31
0.0
  0
LINE
  5
395
330
1F
100
AcDbEntity
  8
0
  6
Continuous
 62
     7
370
    25
100
AcDbLine
 10
-36.9970143832
 20
75.7286592755
 30
0.0
 11
-28.3598584631
 21
80.7153235709
 31
0.0
  0
LINE
  5
396
330
1F
100
AcDbEntity
  8
0
  6
Continuous
 62
     7
370
    25
100
AcDbLine
 10
-22.3876293505
 20
66.2970870496
 30
0.0
 11
-32.0211250106
 21
63.7157996673
 31
0.0
  0
LINE
  5
397
330
1F
100
AcDbEntity
  8
0
  6
Continuous
 62
     7
370
    25
100
AcDbLine
 10
-32.0211250106
 20
63.7157996673
 30
0.0
 11
-30.9858488302
 21
59.8520963621
 31
0.0
  0
LINE
  5
398
330
1F
100
AcDbEntity
  8
0
  6
Continuous
 62
     7
370
    25
100
AcDbLine
 10
-30.9858488302
 20
59.8520963621
 30
0.0
 11
-21.3523531701
 21
62.4333837445
 31
0.0
  0
LINE
  5
399
330
1F
100
AcDbEntity
  8
0
  6
Continuous
 62
     7
370
    25
100
AcDbLine
 10
-19.3153370382
 20
46.960710083
 30
0.0
 11
-29.2886656291
 21
46.960710083
 31
0.0
  0
LINE
  5
39A
330
1F
100
AcDbEntity
  8
0
  6
Continuous
 62
     7
370
    25
100
AcDbLine
 10
-29.2886656291
 20
46.960710083
 30
0.0
 11
-29.2886656291
 21
42.960710083
 31
0.0
  0
LINE
  5
39B
330
1F
100
AcDbEntity
  8
0
  6
Continuous
 62
     7
370
    25
100
AcDbLine
 10
-29.2886656291
 20
42.960710083
 30
0.0
 11
-19.3153370382
 21
42.960710083
 31
0.0
  0
LINE
  5
39C
330
1F
100
AcDbEntity
  8
0
  6
Continuous
 62
     7
370
    25
100
AcDbLine
 10
-21.3523531701
 20
27.4880364215
 30
0.0
 11
-30.9858488302
 21
30.069323804
 31
0.0
  0
LINE
  5
39D
330
1F
100
AcDbEntity
  8
0
  6
Continuous
 62
     7
370
    25
100
AcDbLine
 10
-30.9858488302
 20
30.069323804
 30
0.0
 11
-32.0211250106
 21
26.2056204988
 31
0.0
  0
LINE
  5
39E
330
1F
100
AcDbEntity
  8
0
  6
Continuous
 62
     7
370
    25
100
AcDbLine
 10
-32.0211250106
 20
26.2056204988
 30
0.0
 11
-22.3876293505
 21
23.6243331164
 31
0.0
  0
LINE
  5
39F
330
1F
100
AcDbEntity
  8
0
  6
Continuous
 62
     7
370
    25
100
AcDbLine
 10
-28.3598584631
 20
9.2060965951
 30
0.0
 11
-36.9970143832
 21
14.1927608906
 31
0.0
  0
LINE
  5
3A0
330
1F
100
AcDbEntity
  8
0
  6
Continuous
 62
     7
370
    25
100
AcDbLine
 10
-36.9970143832
 20
14.1927608906
 30
0.0
 11
-38.9970143832
 21
10.7286592755
 31
0.0
  0
LINE
  5
3A1
330
1F
100
AcDbEntity
  8
0
  6
Continuous
 62
     7
370
    25
100
AcDbLine
 10
-38.9970143832
 20
10.7286592755
 30
0.0
 11
-30.3598584631
 21
5.74199498
 31
0.0
  0
LINE
  5
3A2
330
1F
100
AcDbEntity
  8
0
  6
Continuous
 62
     7
370
    25
100
AcDbLine
 10
-39.860303012
 20
-6.6392254094
 30
0.0
 11
-46.9125112896
 21
0.4129828683
 31
0.0
  0
LINE
  5
3A3
330
1F
100
AcDbEntity
  8
0
  6
Continuous
 62
     7
370
    25
100
AcDbLine
 10
-46.9125112896
 20
0.4129828683
 30
0.0
 11
-49.7409384144
 21
-2.4154442565
 31
0.0
  0
LINE
  5
3A4
330
1F
100
AcDbEntity
  8
0
  6
Continuous
 62
     7
370
    25
100
AcDbLine
 10
-49.7409384144
 20
-2.4154442565
 30
0.0
 11
-42.6887301367
 21
-9.4676525341
 31
0.0
  0
LINE
  5
3A5
330
1F
100
AcDbEntity
  8
0
  6
Continuous
 62
     7
370
    25
100
AcDbLine
 10
-55.0699505261
 20
-18.968097083
 30
0.0
 11
-60.0566148216
 21
-10.3309411629
 31
0.0
  0
LINE
  5
3A6
330
1F
100
AcDbEntity
  8
0
  6
Continuous
 62
     7
370
    25
100
AcDbLine
 10
-60.0566148216
 20
-10.3309411629
 30
0.0
 11
-63.5207164367
 21
-12.3309411629
 31
0.0
  0
LINE
  5
3A7
330
1F
100
AcDbEntity
  8
0
  6
Continuous
 62
     7
370
    25
100
AcDbLine
 10
-63.5207164367
 20
-12.3309411629
 30
0.0
 11
-58.5340521412
 21
-20.968097083
 31
0.0
  0
LINE
  5
3A8
330
1F
100
AcDbEntity
  8
0
  6
Continuous
 62
     7
370
    25
100
AcDbLine
 10
-72.9522886625
 20
-26.9403261956
 30
0.0
 11
-75.5335760449
 21
-17.3068305355
 31
0.0
  0
LINE
  5
3A9
330
1F
100
AcDbEntity
  8
0
  6
Continuous
 62
     7
370
    25
100
AcDbLine
 10
-75.5335760449
 20
-17.3068305355
 30
0.0
 11
-79.3972793501
 21
-18.3421067159
 31
0.0
  0
LINE
  5
3AA
330
1F
100
AcDbEntity
  8
0
  6
Continuous
 62
     7
370
    25
100
AcDbLine
 10
-79.3972793501
 20
-18.3421067159
 30
0.0
 11
-76.8159919676
 21
-27.975602376
 31
0.0
  0
LINE
  5
3AB
330
1F
100
AcDbEntity
  8
0
  6
Continuous
 62
     7
370
    25
100
AcDbLine
 10
-92.2886656291
 20
-30.0126185079
 30
0.0
 11
-92.2886656291
 21
-20.039289917
 31
0.0
  0
LINE
  5
3AC
330
1F
100
AcDbEntity
  8
0
  6
Continuous
 62
     7
370
    25
100
AcDbLine
 10
-92.2886656291
 20
-20.039289917
 30
0.0
 11
-96.2886656291
 21
-20.039289917
 31
0.0
  0
LINE
  5
3AD
330
1F
100
AcDbEntity
  8
0
  6
Continuous
 62
     7
370
    25
100
AcDbLine
 10
-96.2886656291
 20
-20.039289917
 30
0.0
 11
-96.2886656291
 21
-30.0126185079
 31
0.0
  0
LINE
  5
3AE
330
1F
100
AcDbEntity
  8
0
  6
Continuous
 62
     7
370
    25
100
AcDbLine
 10
-111.7613392906
 20
-27.975602376
 30
0.0
 11
-109.1800519082
 21
-18.3421067159
 31
0.0
  0
LINE
  5
3AF
330
1F
100
AcDbEntity
  8
0
  6
Continuous
 62
     7
370
    25
100
AcDbLine
 10
-109.1800519082
 20
-18.3421067159
 30
0.0
 11
-113.0437552134
 21
-17.3068305355
 31
0.0
  0
LINE
  5
3B0
330
1F
100
AcDbEntity
  8
0
  6
Continuous
 62
     7
370
    25
100
AcDbLine
 10
-113.0437552134
 20
-17.3068305355
 30
0.0
 11
-115.6250425957
 21
-26.9403261956
 31
0.0
  0
LINE
  5
3B1
330
1F
100
AcDbEntity
  8
0
  6
Continuous
 62
     7
370
    25
100
AcDbLine
 10
-130.043279117
 20
-20.968097083
 30
0.0
 11
-125.0566148216
 21
-12.3309411629
 31
0.0
  0
LINE
  5
3B2
330
1F
100
AcDbEntity
  8
0
  6
Continuous
 62
     7
370
    25
100
AcDbLine
 10
-125.0566148216
 20
-12.3309411629
 30
0.0
 11
-128.5207164367
 21
-10.3309411629
 31
0.0
  0
LINE
  5
3B3
330
1F
100
AcDbEntity
  8
0
  6
Continuous
 62
     7
370
    25
100
AcDbLine
 10
-128.5207164367
 20
-10.3309411629
 30
0.0
 11
-133.5073807321
 21
-18.968097083
 31
0.0
  0
LINE
  5
3B4
330
1F
100
AcDbEntity
  8
0
  6
Continuous
 62
     7
370
    25
100
AcDbLine
 10
-145.8886011215
 20
-9.4676525341
 30
0.0
 11
-138.8363928439
 21
-2.4154442565
 31
0.0
  0
LINE
  5
3B5
330
1F
100
AcDbEntity
  8
0
  6
Continuous
 62
     7
370
    25
100
AcDbLine
 10
-138.8363928439
 20
-2.4154442565
 30
0.0
 11
-141.6648199686
 21
0.4129828683
 31
0.0
  0
LINE
  5
3B6
330
1F
100
AcDbEntity
  8
0
  6
Continuous
 62
     7
370
    25
100
AcDbLine
 10
-141.6648199686
 20
0.4129828683
 30
0.0
 11
-148.7170282462
 21
-6.6392254094
 31
0.0
  0
LINE
  5
3B7
330
1F
100
AcDbEntity
  8
0
  6
Continuous
 62
     7
370
    25
100
AcDbLine
 10
-158.2174727951
 20
5.74199498
 30
0.0
 11
-149.5803168751
 21
10.7286592755
 31
0.0
  0
LINE
  5
3B8
330
1F
100
AcDbEntity
  8
0
  6
Continuous
 62
     7
370
    25
100
AcDbLine
 10
-149.5803168751
 20
10.7286592755
 30
0.0
 11
-151.5803168751
 21
14.1927608906
 31
0.0
  0
LINE
  5
3B9
330
1F
100
AcDbEntity
  8
0
  6
Continuous
 62
     7
370
    25
100
AcDbLine
 10
-151.5803168751
 20
14.1927608906
 30
0.0
 11
-160.2174727951
 21
9.2060965951
 31
0.0
  0
LINE
  5
3BA
330
1F
100
AcDbEntity
  8
0
  6
Continuous
 62
     7
370
    25
100
AcDbLine
 10
-166.1897019077
 20
23.6243331164
 30
0.0
 11
-156.5562062477
 21
26.2056204988
 31
0.0
  0
LINE
  5
3BB
330
1F
100
AcDbEntity
  8
0
  6
Continuous
 62
     7
370
    25
100
AcDbLine
 10
-156.5562062477
 20
26.2056204988
 30
0.0
 11
-157.5914824281
 21
30.069323804
 31
0.0
  0
LINE
  5
3BC
330
1F
100
AcDbEntity
  8
0
  6
Continuous
 62
     7
370
    25
100
AcDbLine
 10
-157.5914824281
 20
30.069323804
 30
0.0
 11
-167.2249780881
 21
27.4880364215
 31
0.0
  0
LINE
  5
3BD
330
1F
100
AcDbEntity
  8
0
  6
Continuous
 62
     7
370
    25
100
AcDbLine
 10
-169.26199422
 20
42.960710083
 30
0.0
 11
-159.2886656291
 21
42.960710083
 31
0.0
  0
LINE
  5
3BE
330
1F
100
AcDbEntity
  8
0
  6
Continuous
 62
     7
370
    25
100
AcDbLine
 10
-159.2886656291
 20
42.960710083
 30
0.0
 11
-159.2886656291
 21
46.960710083
 31
0.0
  0
LINE
  5
3BF
330
1F
100
AcDbEntity
  8
0
  6
Continuous
 62
     7
370
    25
100
AcDbLine
 10
-159.2886656291
 20
46.960710083
 30
0.0
 11
-169.26199422
 21
46.960710083
 31
0.0
  0
LINE
  5
3C0
330
1F
100
AcDbEntity
  8
0
  6
Continuous
 62
     7
370
    25
100
AcDbLine
 10
-167.2249780881
 20
62.4333837445
 30
0.0
 11
-157.5914824281
 21
59.8520963621
 31
0.0
  0
LINE
  5
3C1
330
1F
100
AcDbEntity
  8
0
  6
Continuous
 62
     7
370
    25
100
AcDbLine
 10
-157.5914824281
 20
59.8520963621
 30
0.0
 11
-156.5562062477
 21
63.7157996673
 31
0.0
  0
LINE
  5
3C2
330
1F
100
AcDbEntity
  8
0
  6
Continuous
 62
     7
370
    25
100
AcDbLine
 10
-156.5562062477
 20
63.7157996673
 30
0.0
 11
-166.1897019077
 21
66.2970870496
 31
0.0
  0
LINE
  5
3C3
330
1F
100
AcDbEntity
  8
0
  6
Continuous
 62
     7
370
    25
100
AcDbLine
 10
-160.2174727951
 20
80.7153235709
 30
0.0
 11
-151.5803168751
 21
75.7286592755
 31
0.0
  0
LINE
  5
3C4
330
1F
100
AcDbEntity
  8
0
  6
Continuous
 62
     7
370
    25
100
AcDbLine
 10
-151.5803168751
 20
75.7286592755
 30
0.0
 11
-149.5803168751
 21
79.1927608906
 31
0.0
  0
LINE
  5
3C5
330
1F
100
AcDbEntity
  8
0
  6
Continuous
 62
     7
370
    25
100
AcDbLine
 10
-149.5803168751
 20
79.1927608906
 30
0.0
 11
-158.2174727951
 21
84.179425186
 31
0.0
  0
LINE
  5
3C6
330
1F
100
AcDbEntity
  8
0
  6
Continuous
 62
     7
370
    25
100
AcDbLine
 10
-148.7170282462
 20
96.5606455754
 30
0.0
 11
-141.6648199686
 21
89.5084372978
 31
0.0
  0
LINE
  5
3C7
330
1F
100
AcDbEntity
  8
0
  6
Continuous
 62
     7
370
    25
100
AcDbLine
 10
-141.6648199686
 20
89.5084372978
 30
0.0
 11
-138.8363928439
 21
92.3368644225
 31
0.0
  0
LINE
  5
3C8
330
1F
100
AcDbEntity
  8
0
  6
Continuous
 62
     7
370
    25
100
AcDbLine
 10
-138.8363928439
 20
92.3368644225
 30
0.0
 11
-145.8886011215
 21
99.3890727001
 31
0.0
  0
LINE
  5
3C9
330
1F
100
AcDbEntity
  8
0
  6
Continuous
 62
     7
370
    25
100
AcDbLine
 10
-133.5073807321
 20
108.889517249
 30
0.0
 11
-128.5207164367
 21
100.252361329
 31
0.0
  0
LINE
  5
3CA
330
1F
100
AcDbEntity
  8
0
  6
Continuous
 62
     7
370
    25
100
AcDbLine
 10
-128.5207164367
 20
100.252361329
 30
0.0
 11
-125.0566148216
 21
102.252361329
 31
0.0
  0
LINE
  5
3CB
330
1F
100
AcDbEntity
  8
0
  6
Continuous
 62
     7
370
    25
100
AcDbLine
 10
-125.0566148216
 20
102.252361329
 30
0.0
 11
-130.043279117
 21
110.889517249
 31
0.0
  0
LINE
  5
3CC
330
1F
100
AcDbEntity
  8
0
  6
Continuous
 62
     7
370
    25
100
AcDbLine
 10
-115.6250425957
 20
116.8617463616
 30
0.0
 11
-113.0437552134
 21
107.2282507016
 31
0.0
  0
LINE
  5
3CD
330
1F
100
AcDbEntity
  8
0
  6
Continuous
 62
     7
370
    25
100
AcDbLine
 10
-113.0437552134
 20
107.2282507016
 30
0.0
 11
-109.1800519082
 21
108.263526882
 31
0.0
  0
LINE
  5
3CE
330
1F
100
AcDbEntity
  8
0
  6
Continuous
 62
     7
370
    25
100
AcDbLine
 10
-109.1800519082
 20
108.263526882
 30
0.0
 11
-111.7613392906
 21
117.897022542
 31
0.0
  0
LINE
  5
3CF
330
1F
100
AcDbEntity
  8
0
  6
Continuous
 62
     7
370
    25
100
AcDbLine
 10
-96.2886656291
 20
119.934038674
 30
0.0
 11
-96.2886656291
 21
109.960710083
 31
0.0
  0
ARC
  5
3D0
330
1F
100
AcDbEntity
  8
0
  6
Continuous
 62
     7
370
    25
100
AcDbCircle
 10
127.3914010426
 20
53.1467238024
 30
0.0
 40
129.9999999999741
100
AcDbArc
 50
323.0532045914
 51
343.7850996951
  0
ARC
  5
3D1
330
1F
100
AcDbEntity
  8
0
  6
Continuous
 62
     7
370
    25
100
AcDbCircle
 10
127.3914010426
 20
53.1467238024
 30
0.0
 40
130.0000000000002
100
AcDbArc
 50
296.723317512
 51
318.8751927628
  0
ARC
  5
3D2
330
1F
100
AcDbEntity
  8
0
  6
Continuous
 62
     7
370
    25
100
AcDbCircle
 10
188.0985431853
 20
-67.4337177827
 30
0.0
 40
4.999999999977271
100
AcDbArc
 50
116.7233175117
 51
180.0
  0
ARC
  5
3D3
330
1F
100
AcDbEntity
  8
0
  6
Continuous
 62
     7
370
    25
100
AcDbCircle
 10
178.0985431853
 20
-89.3126918027
 30
0.0
 40
4.999999999999972
100
AcDbArc
 50
270.0
 51
0.0
  0
ARC
  5
3D4
330
1F
100
AcDbEntity
  8
0
  6
Continuous
 62
     7
370
    25
100
AcDbCircle
 10
167.9975226709
 20
-89.3126918027
 30
0.0
 40
5.000000000016502
100
AcDbArc
 50
191.5369590327
 51
270.0
  0
ARC
  5
3D5
330
1F
100
AcDbEntity
  8
0
  6
Continuous
 62
     7
370
    25
100
AcDbCircle
 10
173.0985431855
 20
-53.903206493
 30
0.0
 40
9.99999999999193
100
AcDbArc
 50
111.4293225538
 51
180.0
  0
ARC
  5
3D6
330
1F
100
AcDbEntity
  8
0
  6
Continuous
 62
     7
370
    25
100
AcDbCircle
 10
131.0829219983
 20
53.1467238024
 30
0.0
 40
104.9999999999999
100
AcDbArc
 50
291.4293225531
 51
72.2472098381
  0
ARC
  5
3D7
330
1F
100
AcDbEntity
  8
0
  6
Continuous
 62
     7
370
    25
100
AcDbCircle
 10
127.3914010426
 20
53.1467238021
 30
0.0
 40
130.0000000002933
100
AcDbArc
 50
59.6180906732
 51
74.0576313944
  0
ARC
  5
3D8
330
1F
100
AcDbEntity
  8
0
  6
Continuous
 62
     7
370
    25
100
AcDbCircle
 10
127.3914010426
 20
53.1467238024
 30
0.0
 40
129.999999999969
100
AcDbArc
 50
35.2068944629
 51
57.5522248249
  0
ARC
  5
3D9
330
1F
100
AcDbEntity
  8
0
  6
Continuous
 62
     7
370
    25
100
AcDbCircle
 10
127.3914010426
 20
53.1467238024
 30
0.0
 40
129.9999999999833
100
AcDbArc
 50
11.0254548576
 51
32.907297769
  0
ARC
  5
3DA
330
1F
100
AcDbEntity
  8
0
  6
Continuous
 62
     7
370
    25
100
AcDbCircle
 10
127.3914010426
 20
53.1467238024
 30
0.0
 40
130.0000000000233
100
AcDbArc
 50
346.9891673338
 51
8.3751028312
  0
ARC
  5
3DB
330
1F
100
AcDbEntity
  8
0
  6
Continuous
 62
     7
370
    25
100
AcDbCircle
 10
54.0282725285
 20
51.649517098
 30
0.0
 40
130.0000000000177
100
AcDbArc
 50
46.9767161909
 51
74.0576313943
  0
ARC
  5
3DC
330
1F
100
AcDbEntity
  8
0
  6
Continuous
 62
     7
370
    25
100
AcDbCircle
 10
54.0282725285
 20
51.649517098
 30
0.0
 40
130.0
100
AcDbArc
 50
22.069157875
 51
45.0150936823
  0
ARC
  5
3DD
330
1F
100
AcDbEntity
  8
0
  6
Continuous
 62
     7
370
    25
100
AcDbCircle
 10
54.0282725285
 20
51.649517098
 30
0.0
 40
130.0000000000032
100
AcDbArc
 50
357.2130822624
 51
19.9166841046
  0
ARC
  5
3DE
330
1F
100
AcDbEntity
  8
0
  6
Continuous
 62
     7
370
    25
100
AcDbCircle
 10
54.0282725285
 20
51.649517098
 30
0.0
 40
130.0000000000022
100
AcDbArc
 50
332.440804441
 51
354.7615871176
  0
ARC
  5
3DF
330
1F
100
AcDbEntity
  8
0
  6
Continuous
 62
     7
370
    25
100
AcDbCircle
 10
54.0282725286
 20
51.649517098
 30
0.0
 40
129.9999999999989
100
AcDbArc
 50
307.8233350074
 51
329.509410978
  0
ARC
  5
3E0
330
1F
100
AcDbEntity
  8
0
  6
Continuous
 62
     7
370
    25
100
AcDbCircle
 10
54.0282725285
 20
51.649517098
 30
0.0
 40
130.0000000000098
100
AcDbArc
 50
296.723317512
 51
304.0602978981
  0
ARC
  5
3E1
330
1F
100
AcDbEntity
  8
0
  6
Continuous
 62
     7
370
    25
100
AcDbCircle
 10
114.7354146713
 20
-68.9309244871
 30
0.0
 40
5.000000000010743
100
AcDbArc
 50
116.7233175128
 51
180.0
  0
ARC
  5
3E2
330
1F
100
AcDbEntity
  8
0
  6
Continuous
 62
     7
370
    25
100
AcDbCircle
 10
104.7354146713
 20
-90.8098985071
 30
0.0
 40
5.000000000000043
100
AcDbArc
 50
270.0
 51
0.0
  0
ARC
  5
3E3
330
1F
100
AcDbEntity
  8
0
  6
Continuous
 62
     7
370
    25
100
AcDbCircle
 10
99.7354146715
 20
-55.4004131974
 30
0.0
 40
9.999999999991966
100
AcDbArc
 50
111.4293225538
 51
180.0
  0
ARC
  5
3E4
330
1F
100
AcDbEntity
  8
0
  6
Continuous
 62
     7
370
    25
100
AcDbCircle
 10
57.7197934843
 20
51.649517098
 30
0.0
 40
105.0
100
AcDbArc
 50
291.4293225531
 51
72.2472098381
  0
ARC
  5
3E5
330
1F
100
AcDbEntity
  8
0
  6
Continuous
 62
     7
370
    25
100
AcDbCircle
 10
94.6343941568
 20
-90.8098985071
 30
0.0
 40
4.99999999996743
100
AcDbArc
 50
191.536959033
 51
270.0
  0
ARC
  5
3E6
330
1F
100
AcDbEntity
  8
0
  6
Continuous
 62
     7
370
    25
100
AcDbCircle
 10
63.5897577408
 20
53.7907825212
 30
0.0
 40
74.9999999999888
100
AcDbArc
 50
241.5280685946
 51
253.4719314054
  0
ARC
  5
3E7
330
1F
100
AcDbEntity
  8
0
  6
Continuous
 62
     7
370
    25
100
AcDbCircle
 10
63.5897577408
 20
53.7907825212
 30
0.0
 40
75.00000000001472
100
AcDbArc
 50
226.5280685946
 51
238.4719314054
  0
ARC
  5
3E8
330
1F
100
AcDbEntity
  8
0
  6
Continuous
 62
     7
370
    25
100
AcDbCircle
 10
63.5897577408
 20
53.7907825212
 30
0.0
 40
74.99999999998832
100
AcDbArc
 50
211.5280685946
 51
223.4719314054
  0
ARC
  5
3E9
330
1F
100
AcDbEntity
  8
0
  6
Continuous
 62
     7
370
    25
100
AcDbCircle
 10
63.5897577408
 20
53.7907825212
 30
0.0
 40
75.00000000000293
100
AcDbArc
 50
196.5280685946
 51
208.4719314054
  0
ARC
  5
3EA
330
1F
100
AcDbEntity
  8
0
  6
Continuous
 62
     7
370
    25
100
AcDbCircle
 10
63.5897577408
 20
53.7907825212
 30
0.0
 40
75.0000000000004
100
AcDbArc
 50
181.5280685946
 51
193.4719314054
  0
ARC
  5
3EB
330
1F
100
AcDbEntity
  8
0
  6
Continuous
 62
     7
370
    25
100
AcDbCircle
 10
63.5897577408
 20
53.7907825212
 30
0.0
 40
74.99999999999999
100
AcDbArc
 50
166.5280685946
 51
178.4719314054
  0
ARC
  5
3EC
330
1F
100
AcDbEntity
  8
0
  6
Continuous
 62
     7
370
    25
100
AcDbCircle
 10
63.5897577408
 20
53.7907825212
 30
0.0
 40
74.99999999999562
100
AcDbArc
 50
151.5280685946
 51
163.4719314054
  0
ARC
  5
3ED
330
1F
100
AcDbEntity
  8
0
  6
Continuous
 62
     7
370
    25
100
AcDbCircle
 10
63.5897577408
 20
53.7907825212
 30
0.0
 40
75.0000000000165
100
AcDbArc
 50
136.5280685946
 51
148.4719314054
  0
ARC
  5
3EE
330
1F
100
AcDbEntity
  8
0
  6
Continuous
 62
     7
370
    25
100
AcDbCircle
 10
63.5897577408
 20
53.7907825212
 30
0.0
 40
75.00000000000377
100
AcDbArc
 50
106.5280685946
 51
118.4719314054
  0
ARC
  5
3EF
330
1F
100
AcDbEntity
  8
0
  6
Continuous
 62
     7
370
    25
100
AcDbCircle
 10
63.5897577408
 20
53.7907825212
 30
0.0
 40
75.00000000000824
100
AcDbArc
 50
76.5280685946
 51
88.4719314054
  0
ARC
  5
3F0
330
1F
100
AcDbEntity
  8
0
  6
Continuous
 62
     7
370
    25
100
AcDbCircle
 10
63.5897577408
 20
53.7907825212
 30
0.0
 40
75.00000000001613
100
AcDbArc
 50
46.5280685946
 51
58.4719314054
  0
ARC
  5
3F1
330
1F
100
AcDbEntity
  8
0
  6
Continuous
 62
     7
370
    25
100
AcDbCircle
 10
63.5897577408
 20
53.7907825212
 30
0.0
 40
75.00000000000225
100
AcDbArc
 50
31.5280685946
 51
43.4719314054
  0
ARC
  5
3F2
330
1F
100
AcDbEntity
  8
0
  6
Continuous
 62
     7
370
    25
100
AcDbCircle
 10
63.5897577408
 20
53.7907825212
 30
0.0
 40
75.00000000000347
100
AcDbArc
 50
16.5280685946
 51
28.4719314054
  0
ARC
  5
3F3
330
1F
100
AcDbEntity
  8
0
  6
Continuous
 62
     7
370
    25
100
AcDbCircle
 10
63.5897577408
 20
53.7907825212
 30
0.0
 40
74.99999999999496
100
AcDbArc
 50
1.5280685946
 51
13.4719314054
  0
ARC
  5
3F4
330
1F
100
AcDbEntity
  8
0
  6
Continuous
 62
     7
370
    25
100
AcDbCircle
 10
63.5897577408
 20
53.7907825212
 30
0.0
 40
75.00000000000135
100
AcDbArc
 50
346.5280685946
 51
358.4719314054
  0
ARC
  5
3F5
330
1F
100
AcDbEntity
  8
0
  6
Continuous
 62
     7
370
    25
100
AcDbCircle
 10
63.5897577408
 20
53.7907825212
 30
0.0
 40
74.99999999999552
100
AcDbArc
 50
331.5280685946
 51
343.4719314054
  0
ARC
  5
3F6
330
1F
100
AcDbEntity
  8
0
  6
Continuous
 62
     7
370
    25
100
AcDbCircle
 10
63.5897577408
 20
53.7907825212
 30
0.0
 40
74.99999999999727
100
AcDbArc
 50
316.5280685946
 51
328.4719314054
  0
ARC
  5
3F7
330
1F
100
AcDbEntity
  8
0
  6
Continuous
 62
     7
370
    25
100
AcDbCircle
 10
63.5897577408
 20
53.7907825212
 30
0.0
 40
74.99999999999513
100
AcDbArc
 50
301.5280685946
 51
313.4719314054
  0
ARC
  5
3F8
330
1F
100
AcDbEntity
  8
0
  6
Continuous
 62
     7
370
    25
100
AcDbCircle
 10
63.5897577408
 20
53.7907825212
 30
0.0
 40
75.00000000001594
100
AcDbArc
 50
286.5280685946
 51
298.4719314054
  0
ARC
  5
3F9
330
1F
100
AcDbEntity
  8
0
  6
Continuous
 62
     7
370
    25
100
AcDbCircle
 10
63.5897577408
 20
53.7907825212
 30
0.0
 40
74.99999999999783
100
AcDbArc
 50
271.5280685946
 51
283.4719314054
  0
ARC
  5
3FA
330
1F
100
AcDbEntity
  8
0
  6
Continuous
 62
     7
370
    25
100
AcDbCircle
 10
63.5897577407
 20
53.7907825205
 30
0.0
 40
74.99999999930041
100
AcDbArc
 50
256.5280685946
 51
268.4719314055
  0
ARC
  5
3FB
330
1F
100
AcDbEntity
  8
0
  6
Continuous
 62
     7
370
    25
100
AcDbCircle
 10
63.5897577408
 20
53.7907825212
 30
0.0
 40
25.00000000000004
100
AcDbArc
 50
340.0
 51
80.0
  0
ARC
  5
3FC
330
1F
100
AcDbEntity
  8
0
  6
Continuous
 62
     7
370
    25
100
AcDbCircle
 10
63.5897577409
 20
53.7907825212
 30
0.0
 40
54.69114796578261
100
AcDbArc
 50
340.0
 51
80.0
  0
ARC
  5
3FD
330
1F
100
AcDbEntity
  8
0
  6
Continuous
 62
     7
370
    25
100
AcDbCircle
 10
63.5897577408
 20
53.7907825212
 30
0.0
 40
24.99999999999994
100
AcDbArc
 50
220.0
 51
320.0
  0
ARC
  5
3FE
330
1F
100
AcDbEntity
  8
0
  6
Continuous
 62
     7
370
    25
100
AcDbCircle
 10
63.5897577408
 20
53.7907825212
 30
0.0
 40
54.69114796574956
100
AcDbArc
 50
220.0
 51
320.0000000001
  0
ARC
  5
3FF
330
1F
100
AcDbEntity
  8
0
  6
Continuous
 62
     7
370
    25
100
AcDbCircle
 10
63.5897577408
 20
53.7907825212
 30
0.0
 40
24.99999999999991
100
AcDbArc
 50
100.0
 51
200.0
  0
ARC
  5
400
330
1F
100
AcDbEntity
  8
0
  6
Continuous
 62
     7
370
    25
100
AcDbCircle
 10
63.5897577407
 20
53.7907825213
 30
0.0
 40
54.6911479656832
100
AcDbArc
 50
99.9999999999
 51
200.0000000002
  0
ARC
  5
401
330
1F
100
AcDbEntity
  8
0
  6
Continuous
 62
     7
370
    25
100
AcDbCircle
 10
63.5897577408
 20
53.7907825212
 30
0.0
 40
74.999999999997
100
AcDbArc
 50
91.5280685946
 51
103.4719314054
  0
ARC
  5
402
330
1F
100
AcDbEntity
  8
0
  6
Continuous
 62
     7
370
    25
100
AcDbCircle
 10
63.5897577408
 20
53.7907825212
 30
0.0
 40
74.99999999999801
100
AcDbArc
 50
61.5280685946
 51
73.4719314054
  0
ARC
  5
403
330
1F
100
AcDbEntity
  8
0
  6
Continuous
 62
     7
370
    25
100
AcDbCircle
 10
63.5897577408
 20
53.7907825212
 30
0.0
 40
75.00000000000902
100
AcDbArc
 50
121.5280685946
 51
133.4719314054
  0
ARC
  5
404
330
1F
100
AcDbEntity
  8
0
  6
Continuous
 62
     7
370
    25
100
AcDbCircle
 10
-94.2886656291
 20
44.960710083
 30
0.0
 40
75.00000000000256
100
AcDbArc
 50
76.5280685946
 51
88.4719314054
  0
ARC
  5
405
330
1F
100
AcDbEntity
  8
0
  6
Continuous
 62
     7
370
    25
100
AcDbCircle
 10
-94.2886656291
 20
44.960710083
 30
0.0
 40
75.00000000000735
100
AcDbArc
 50
61.5280685946
 51
73.4719314054
  0
ARC
  5
406
330
1F
100
AcDbEntity
  8
0
  6
Continuous
 62
     7
370
    25
100
AcDbCircle
 10
-94.2886656291
 20
44.960710083
 30
0.0
 40
74.9999999999974
100
AcDbArc
 50
46.5280685946
 51
58.4719314054
  0
ARC
  5
407
330
1F
100
AcDbEntity
  8
0
  6
Continuous
 62
     7
370
    25
100
AcDbCircle
 10
-94.2886656291
 20
44.960710083
 30
0.0
 40
74.99999999999248
100
AcDbArc
 50
31.5280685946
 51
43.4719314054
  0
ARC
  5
408
330
1F
100
AcDbEntity
  8
0
  6
Continuous
 62
     7
370
    25
100
AcDbCircle
 10
-94.2886656291
 20
44.960710083
 30
0.0
 40
75.00000000000047
100
AcDbArc
 50
16.5280685946
 51
28.4719314054
  0
ARC
  5
409
330
1F
100
AcDbEntity
  8
0
  6
Continuous
 62
     7
370
    25
100
AcDbCircle
 10
-94.2886656291
 20
44.960710083
 30
0.0
 40
74.99999999999557
100
AcDbArc
 50
1.5280685946
 51
13.4719314054
  0
ARC
  5
40A
330
1F
100
AcDbEntity
  8
0
  6
Continuous
 62
     7
370
    25
100
AcDbCircle
 10
-94.2886656291
 20
44.960710083
 30
0.0
 40
75.00000000000188
100
AcDbArc
 50
346.5280685946
 51
358.4719314054
  0
ARC
  5
40B
330
1F
100
AcDbEntity
  8
0
  6
Continuous
 62
     7
370
    25
100
AcDbCircle
 10
-94.2886656291
 20
44.960710083
 30
0.0
 40
75.00000000000205
100
AcDbArc
 50
331.5280685946
 51
343.4719314054
  0
ARC
  5
40C
330
1F
100
AcDbEntity
  8
0
  6
Continuous
 62
     7
370
    25
100
AcDbCircle
 10
-94.2886656291
 20
44.960710083
 30
0.0
 40
75.00000000000126
100
AcDbArc
 50
316.5280685946
 51
328.4719314054
  0
ARC
  5
40D
330
1F
100
AcDbEntity
  8
0
  6
Continuous
 62
     7
370
    25
100
AcDbCircle
 10
-94.2886656291
 20
44.960710083
 30
0.0
 40
74.99999999999642
100
AcDbArc
 50
301.5280685946
 51
313.4719314054
  0
ARC
  5
40E
330
1F
100
AcDbEntity
  8
0
  6
Continuous
 62
     7
370
    25
100
AcDbCircle
 10
-94.2886656291
 20
44.960710083
 30
0.0
 40
75.00000000000288
100
AcDbArc
 50
286.5280685946
 51
298.4719314054
  0
ARC
  5
40F
330
1F
100
AcDbEntity
  8
0
  6
Continuous
 62
     7
370
    25
100
AcDbCircle
 10
-94.2886656291
 20
44.960710083
 30
0.0
 40
74.99999999999156
100
AcDbArc
 50
271.5280685946
 51
283.4719314054
  0
ARC
  5
410
330
1F
100
AcDbEntity
  8
0
  6
Continuous
 62
     7
370
    25
100
AcDbCircle
 10
-94.2886656291
 20
44.960710083
 30
0.0
 40
75.00000000000294
100
AcDbArc
 50
256.5280685946
 51
268.4719314054
  0
ARC
  5
411
330
1F
100
AcDbEntity
  8
0
  6
Continuous
 62
     7
370
    25
100
AcDbCircle
 10
-94.2886656291
 20
44.960710083
 30
0.0
 40
74.99999999999928
100
AcDbArc
 50
241.5280685946
 51
253.4719314054
  0
ARC
  5
412
330
1F
100
AcDbEntity
  8
0
  6
Continuous
 62
     7
370
    25
100
AcDbCircle
 10
-94.2886656291
 20
44.960710083
 30
0.0
 40
75.00000000000367
100
AcDbArc
 50
226.5280685946
 51
238.4719314054
  0
ARC
  5
413
330
1F
100
AcDbEntity
  8
0
  6
Continuous
 62
     7
370
    25
100
AcDbCircle
 10
-94.2886656291
 20
44.960710083
 30
0.0
 40
75.0000000000031
100
AcDbArc
 50
211.5280685946
 51
223.4719314054
  0
ARC
  5
414
330
1F
100
AcDbEntity
  8
0
  6
Continuous
 62
     7
370
    25
100
AcDbCircle
 10
-94.2886656291
 20
44.960710083
 30
0.0
 40
74.99999999999501
100
AcDbArc
 50
196.5280685946
 51
208.4719314054
  0
ARC
  5
415
330
1F
100
AcDbEntity
  8
0
  6
Continuous
 62
     7
370
    25
100
AcDbCircle
 10
-94.2886656291
 20
44.960710083
 30
0.0
 40
75.00000000000051
100
AcDbArc
 50
181.5280685946
 51
193.4719314054
  0
ARC
  5
416
330
1F
100
AcDbEntity
  8
0
  6
Continuous
 62
     7
370
    25
100
AcDbCircle
 10
-94.2886656291
 20
44.960710083
 30
0.0
 40
74.9999999999987
100
AcDbArc
 50
166.5280685946
 51
178.4719314054
  0
ARC
  5
417
330
1F
100
AcDbEntity
  8
0
  6
Continuous
 62
     7
370
    25
100
AcDbCircle
 10
-94.2886656291
 20
44.960710083
 30
0.0
 40
75.00000000000497
100
AcDbArc
 50
151.5280685946
 51
163.4719314054
  0
ARC
  5
418
330
1F
100
AcDbEntity
  8
0
  6
Continuous
 62
     7
370
    25
100
AcDbCircle
 10
-94.2886656291
 20
44.960710083
 30
0.0
 40
75.00000000001303
100
AcDbArc
 50
136.5280685946
 51
148.4719314054
  0
ARC
  5
419
330
1F
100
AcDbEntity
  8
0
  6
Continuous
 62
     7
370
    25
100
AcDbCircle
 10
-94.2886656291
 20
44.960710083
 30
0.0
 40
74.99999999998555
100
AcDbArc
 50
121.5280685946
 51
133.4719314054
  0
ARC
  5
41A
330
1F
100
AcDbEntity
  8
0
  6
Continuous
 62
     7
370
    25
100
AcDbCircle
 10
-94.2886656291
 20
44.960710083
 30
0.0
 40
74.99999999999491
100
AcDbArc
 50
106.5280685946
 51
118.4719314054
  0
ARC
  5
41B
330
1F
100
AcDbEntity
  8
0
  6
Continuous
 62
     7
370
    25
100
AcDbCircle
 10
-94.28866563
 20
44.9607100935
 30
0.0
 40
74.99999998954364
100
AcDbArc
 50
91.5280685941
 51
103.4719314066
  0
ENDSEC
  0
SECTION
  2
OBJECTS
  0
DICTIONARY
  5
C
330
0
100
AcDbDictionary
281
     1
  3
ACAD_GROUP
350
D
  3
ACAD_LAYOUT
350
1A
  3
ACAD_MLINESTYLE
350
17
  3
ACAD_PLOTSETTINGS
350
19
  3
ACAD_PLOTSTYLENAME
350
E
  3
ACAD_SCALELIST
350
47
  3
DWGPROPS
350
41C
  0
DICTIONARY
  5
D
102
{ACAD_REACTORS
330
C
102
}
330
C
100
AcDbDictionary
281
     1
  0
DICTIONARY
  5
1A
102
{ACAD_REACTORS
330
C
102
}
330
C
100
AcDbDictionary
281
     1
  3
Layout1
350
1E
  3
Layout2
350
26
  3
Model
350
22
  0
DICTIONARY
  5
17
102
{ACAD_REACTORS
330
C
102
}
330
C
100
AcDbDictionary
281
     1
  3
Standard
350
18
  0
DICTIONARY
  5
19
102
{ACAD_REACTORS
330
C
102
}
330
C
100
AcDbDictionary
281
     1
  0
ACDBDICTIONARYWDFLT
  5
E
102
{ACAD_REACTORS
330
C
102
}
330
C
100
AcDbDictionary
281
     1
  3
Normal
350
F
100
AcDbDictionaryWithDefault
340
F
  0
DICTIONARY
  5
47
102
{ACAD_REACTORS
330
C
102
}
330
C
100
AcDbDictionary
281
     1
  3
A0
350
48
  3
A1
350
49
  3
A2
350
4A
  3
A3
350
4B
  3
A4
350
4C
  3
A5
350
4D
  3
A6
350
4E
  3
A7
350
4F
  3
A8
350
50
  3
A9
350
51
  3
B0
350
52
  3
B1
350
53
  3
B2
350
54
  3
B3
350
55
  3
B4
350
56
  3
B5
350
57
  3
B6
350
58
  0
XRECORD
  5
41C
102
{ACAD_REACTORS
330
C
102
}
330
C
100
AcDbXrecord
280
     1
  1
DWGPROPS COOKIE
  2

  3

  4

  6

  7

  8
Administrator
  9

300
=
301
=
302
=
303
=
304
=
305
=
306
=
307
=
308
=
309
=
 40
0.0
 41
2460355.420436273
 42
2460355.42093515
  1

 90
        0
  0
LAYOUT
  5
1E
102
{ACAD_REACTORS
330
1A
102
}
330
1A
100
AcDbPlotSettings
  1

  2
none_device
  4

  6

 40
0.0
 41
0.0
 42
0.0
 43
0.0
 44
0.0
 45
0.0
 46
0.0
 47
0.0
 48
0.0
 49
0.0
140
0.0
141
0.0
142
1.0
143
1.0
 70
   688
 72
     1
 73
     0
 74
     5
  7

 75
    16
147
1.0
148
0.0
149
0.0
100
AcDbLayout
  1
Layout1
 70
     1
 71
     1
 10
0.0
 20
0.0
 11
420.0
 21
297.0
 12
0.0
 22
0.0
 32
0.0
 14
1.0000000000E+20
 24
1.0000000000E+20
 34
1.0000000000E+20
 15
-1.0000000000E+20
 25
-1.0000000000E+20
 35
-1.0000000000E+20
146
0.0
 13
0.0
 23
0.0
 33
0.0
 16
1.0
 26
0.0
 36
0.0
 17
0.0
 27
1.0
 37
0.0
 76
     0
330
1B
  0
LAYOUT
  5
26
102
{ACAD_REACTORS
330
1A
102
}
330
1A
100
AcDbPlotSettings
  1

  2
none_device
  4

  6

 40
0.0
 41
0.0
 42
0.0
 43
0.0
 44
0.0
 45
0.0
 46
0.0
 47
0.0
 48
0.0
 49
0.0
140
0.0
141
0.0
142
1.0
143
1.0
 70
   688
 72
     1
 73
     0
 74
     5
  7

 75
    16
147
1.0
148
0.0
149
0.0
100
AcDbLayout
  1
Layout2
 70
     1
 71
     2
 10
0.0
 20
0.0
 11
0.0
 21
0.0
 12
0.0
 22
0.0
 32
0.0
 14
0.0
 24
0.0
 34
0.0
 15
0.0
 25
0.0
 35
0.0
146
0.0
 13
0.0
 23
0.0
 33
0.0
 16
1.0
 26
0.0
 36
0.0
 17
0.0
 27
1.0
 37
0.0
 76
     0
330
23
  0
LAYOUT
  5
22
102
{ACAD_REACTORS
330
1A
102
}
330
1A
100
AcDbPlotSettings
  1

  2
none_device
  4
ANSI_A_(11.00_x_8.50_Inches)
  6

 40
6.35
 41
19.05
 42
6.35000508
 43
19.05000254
 44
279.4
 45
215.9
 46
130.5272008154
 47
41.800939662
 48
0.0
 49
0.0
140
0.0
141
0.0
142
0.0215863222
143
1.0
 70
  1696
 72
     0
 73
     0
 74
     0
  7

 75
     0
147
0.0179189148
148
-1300.4909072572
149
0.0
100
AcDbLayout
  1
Model
 70
     1
 71
     0
 10
0.0
 20
0.0
 11
420.0
 21
297.0
 12
0.0
 22
0.0
 32
0.0
 14
-247.0947210523
 24
-95.8098985071
 34
0.0
 15
257.3914010426
 25
267.612546776
 35
0.0
146
0.0
 13
0.0
 23
0.0
 33
0.0
 16
1.0
 26
0.0
 36
0.0
 17
0.0
 27
1.0
 37
0.0
 76
     0
330
1F
331
29
  0
MLINESTYLE
  5
18
102
{ACAD_REACTORS
330
17
102
}
330
17
100
AcDbMlineStyle
  2
Standard
 70
     0
  3

 62
   256
 51
90.0
 52
90.0
 71
     2
 49
0.5
 62
   256
  6
BYLAYER
 49
-0.5
 62
   256
  6
BYLAYER
  0
ACDBPLACEHOLDER
  5
F
102
{ACAD_REACTORS
330
E
102
}
330
E
  0
SCALE
  5
48
102
{ACAD_REACTORS
330
47
102
}
330
47
100
AcDbScale
 70
     0
300
1:1
140
1.0
141
1.0
290
     1
  0
SCALE
  5
49
102
{ACAD_REACTORS
330
47
102
}
330
47
100
AcDbScale
 70
     0
300
1:2
140
1.0
141
2.0
290
     0
  0
SCALE
  5
4A
102
{ACAD_REACTORS
330
47
102
}
330
47
100
AcDbScale
 70
     0
300
1:4
140
1.0
141
4.0
290
     0
  0
SCALE
  5
4B
102
{ACAD_REACTORS
330
47
102
}
330
47
100
AcDbScale
 70
     0
300
1:5
140
1.0
141
5.0
290
     0
  0
SCALE
  5
4C
102
{ACAD_REACTORS
330
47
102
}
330
47
100
AcDbScale
 70
     0
300
1:8
140
1.0
141
8.0
290
     0
  0
SCALE
  5
4D
102
{ACAD_REACTORS
330
47
102
}
330
47
100
AcDbScale
 70
     0
300
1:10
140
1.0
141
10.0
290
     0
  0
SCALE
  5
4E
102
{ACAD_REACTORS
330
47
102
}
330
47
100
AcDbScale
 70
     0
300
1:16
140
1.0
141
16.0
290
     0
  0
SCALE
  5
4F
102
{ACAD_REACTORS
330
47
102
}
330
47
100
AcDbScale
 70
     0
300
1:20
140
1.0
141
20.0
290
     0
  0
SCALE
  5
50
102
{ACAD_REACTORS
330
47
102
}
330
47
100
AcDbScale
 70
     0
300
1:30
140
1.0
141
30.0
290
     0
  0
SCALE
  5
51
102
{ACAD_REACTORS
330
47
102
}
330
47
100
AcDbScale
 70
     0
300
1:40
140
1.0
141
40.0
290
     0
  0
SCALE
  5
52
102
{ACAD_REACTORS
330
47
102
}
330
47
100
AcDbScale
 70
     0
300
1:50
140
1.0
141
50.0
290
     0
  0
SCALE
  5
53
102
{ACAD_REACTORS
330
47
102
}
330
47
100
AcDbScale
 70
     0
300
1:100
140
1.0
141
100.0
290
     0
  0
SCALE
  5
54
102
{ACAD_REACTORS
330
47
102
}
330
47
100
AcDbScale
 70
     0
300
2:1
140
2.0
141
1.0
290
     0
  0
SCALE
  5
55
102
{ACAD_REACTORS
330
47
102
}
330
47
100
AcDbScale
 70
     0
300
4:1
140
4.0
141
1.0
290
     0
  0
SCALE
  5
56
102
{ACAD_REACTORS
330
47
102
}
330
47
100
AcDbScale
 70
     0
300
8:1
140
8.0
141
1.0
290
     0
  0
SCALE
  5
57
102
{ACAD_REACTORS
330
47
102
}
330
47
100
AcDbScale
 70
     0
300
10:1
140
10.0
141
1.0
290
     0
  0
SCALE
  5
58
102
{ACAD_REACTORS
330
47
102
}
330
47
100
AcDbScale
 70
     0
300
100:1
140
100.0
141
1.0
290
     0
  0
ENDSEC
  0
EOF
